Home » A » Adolescents »

Adolescents - Amoeba Tabs

Artists:  A B C D E F G H I J K L M N O P Q R S T U V W X Y Z # 

Amoeba Tabs

(ver. 2) Click to play this song!
Adolescents
 Rating:
4.2/5 (30 votes)
                [Intro]
e|-------------------|    |-----------------|-------------------|    |-----------------|-------------------|
B|-------------------| x1 |-----------------|-------------------| x3 |-----------------|-------------------|x1
G|---------11---12---|    |-9---9-9-9-9-9-9-|-9-9-9-9-11---12---|    |-9---9-9-9-9-9-9-|-8---8-8-11---12---|
D|---------x----x----|    |-x---x-x-x-x-x-x-|-x-x-x-x-x----x----|    |-x---x-x-x-x-x-x-|-x---x-x-x----x----|
A|---------9----10---|    |-7---7-7-7-7-7-7-|-7-7-7-7-9----10---|    |-7---7-7-7-7-7-7-|-6---6-6-9----10---|
E|-------------------|    |-----------------|-------------------|    |-----------------|-------------------|
 
e|-----------------|-------------------|     |-----------------|-------------------|
B|-----------------|-------------------| x3  |-----------------|-------------------| x1
G|-9---9-9-9-9-9-9-|-9-9-9-9-11---12---|     |-9---9-9-9-9-9-9-|-8---8-8-11---12---|
D|-x---x-x-x-x-x-x-|-x-x-x-x-x----x----|     |-x---x-x-x-x-x-x-|-x---x-x-x----x----|
A|-7---7-7-7-7-7-7-|-7-7-7-7-9----10---|     |-7---7-7-7-7-7-7-|-6---6-6-9----10---|
E|-----------------|-------------------|     |-----------------|-------------------|
 
[Verse]
e|-----------------|-----------------|-----------------|-----------------|
B|-----------------|-----------------|-----------------|-----------------| x2
G|-----------------|-----------------|-----------------|-----------------|
D|-9-------------9-|-7-------------7-|-6---------------|-6-----6---------|
A|-9---9-9-9-9-9-9-|-7---7-7-7-7-7-7-|-6---6-6-6-6-6-6-|-6-6-6-6-6-6-6-6-|
E|-7---7-7-7-7-7-7-|-5---5-5-5-5-5-5-|-4---4-4-4-4-4-4-|-4-4-4-4-4-4-4-4-|
       . . . . .         . . . . .         . . . . . .   . . .   . . . .
 
e|-----------------|-----------------|-----------------|-----------------|
B|-----------------|-----------------|-----------------|-----------------| x2
G|-----------------|-----------------|-----------------|-----------------|
D|-9---9-9-9-9-9-9-|-7---7-7-7-7-7-7-|-6---6-6-6-6-6-6-|-6-6-6-6-6-6-6-6-|
A|-9---9-9-9-9-9-9-|-7---7-7-7-7-7-7-|-6---6-6-6-6-6-6-|-6-6-6-6-6-6-6-6-|
E|-7---7-7-7-7-7-7-|-5---5-5-5-5-5-5-|-4---4-4-4-4-4-4-|-4-4-4-4-4-4-4-4-|
 
[Pre-Chorus]
e|-----------------|-----------------|-----------------|-----------------|
B|-----------------|-----------------|-----------------|-----------------|
G|-----------------|-9---9-9---9-9---|-----------------|-----------------|
D|-8---8-8---8-8---|-9---9-9---9-9---|-6---6-6---6-6---|-8---8-8---8-8---|
A|-8---8-8---8-8---|-7---7-7---7-7---|-6---6-6---6-6---|-8---8-8---8-8---|
E|-6---6-6---6-6---|-----------------|-4---4-4---4-4---|-6---6-6---6-6---|
 
e|-----------------|-----------------|---------------|
B|-----------------|-----------------|---------------|
G|-9---9-9---9-9---|-----------------|---------------|
D|-9---9-9---9-9---|-----------------|-6-x-----------|
A|-7---7-7---7-7---|-6-6-6-6-6-6-6-6-|-6-x-----------|
E|-----------------|-4-4-4-4-4-4-4-4-|-4-x-----------|
                     . . . . . . . .
 
[Chorus]
e|-------------------|    |-----------------|-------------------|    |-----------------|-------------------|
B|-------------------| x1 |-----------------|-------------------| x3 |-----------------|-------------------|x1
G|---------11---12---|    |-9---9-9-9-9-9-9-|-9-9-9-9-11---12---|    |-9---9-9-9-9-9-9-|-8---8-8-11---12---|
D|---------x----x----|    |-x---x-x-x-x-x-x-|-x-x-x-x-x----x----|    |-x---x-x-x-x-x-x-|-x---x-x-x----x----|
A|---------9----10---|    |-7---7-7-7-7-7-7-|-7-7-7-7-9----10---|    |-7---7-7-7-7-7-7-|-6---6-6-9----10---|
E|-------------------|    |-----------------|-------------------|    |-----------------|-------------------|
 
e|-----------------|-------------------|     |-----------------|-------------------|
B|-----------------|-------------------| x3  |-----------------|-------------------| x1
G|-9---9-9-9-9-9-9-|-9-9-9-9-11---12---|     |-9---9-9-9-9-9-9-|-8---8-8-11---12---|
D|-x---x-x-x-x-x-x-|-x-x-x-x-x----x----|     |-x---x-x-x-x-x-x-|-x---x-x-x----x----|
A|-7---7-7-7-7-7-7-|-7-7-7-7-9----10---|     |-7---7-7-7-7-7-7-|-6---6-6-9----10---|
E|-----------------|-------------------|     |-----------------|-------------------|
 
[Solo] x2
e|-----------------|-----------------|------------------------|-------------------------|
B|-----------------|-----------------|------------------------|-------------------------|
G|-9---9-9-9-9-9-9-|-9-9-9-9-9-9-9-9-|------------------------|-------------------------|
D|-9---9-9-9-9-9-9-|-9-9-9-9-9-9-9-9-|-12---12-12-12-12-12-12-|-12-12-12-12-12-12-12-12-|
A|-7---7-7-7-7-7-7-|-7-7-7-7-7-7-7-7-|-12---12-12-12-12-12-12-|-12-12-12-12-12-12-12-12-|
E|-----------------|-----------------|-10---10-10-10-10-10-10-|-10-10-10-10-10-10-10-10-|
 
e|------------------------|-------------------------|-----------------|-----------------|
B|------------------------|-------------------------|-----------------|-----------------|
G|------------------------|-------------------------|-----------------|-----------------|
D|-10---10-10-10-10-10-10-|-10-10-10-10-10-10-10-10-|-9---9-9-9-9-9-9-|-9-9-9-9-9-9-9-9-|
A|-10---10-10-10-10-10-10-|-10-10-10-10-10-10-10-10-|-9---9-9-9-9-9-9-|-9-9-9-9-9-9-9-9-|
E|-8----8--8--8--8--8--8--|-8--8--8--8--8--8--8--8--|-7---7-7-7-7-7-7-|-7-7-7-7-7-7-7-7-|
 
[Verse]
e|-----------------|-----------------|-----------------|-----------------|
B|-----------------|-----------------|-----------------|-----------------| x2
G|-----------------|-----------------|-----------------|-----------------|
D|-9-------------9-|-7-------------7-|-6---------------|-6-----6---------|
A|-9---9-9-9-9-9-9-|-7---7-7-7-7-7-7-|-6---6-6-6-6-6-6-|-6-6-6-6-6-6-6-6-|
E|-7---7-7-7-7-7-7-|-5---5-5-5-5-5-5-|-4---4-4-4-4-4-4-|-4-4-4-4-4-4-4-4-|
       . . . . .         . . . . .         . . . . . .   . . .   . . . .
 
e|-----------------|-----------------|-----------------|-----------------|
B|-----------------|-----------------|-----------------|-----------------| x2
G|-----------------|-----------------|-----------------|-----------------|
D|-9---9-9-9-9-9-9-|-7---7-7-7-7-7-7-|-6---6-6-6-6-6-6-|-6-6-6-6-6-6-6-6-|
A|-9---9-9-9-9-9-9-|-7---7-7-7-7-7-7-|-6---6-6-6-6-6-6-|-6-6-6-6-6-6-6-6-|
E|-7---7-7-7-7-7-7-|-5---5-5-5-5-5-5-|-4---4-4-4-4-4-4-|-4-4-4-4-4-4-4-4-|
 
[Pre-Chorus]
e|-----------------|-----------------|-----------------|-----------------|
B|-----------------|-----------------|-----------------|-----------------|
G|-----------------|-9---9-9---9-9---|-----------------|-----------------|
D|-8---8-8---8-8---|-9---9-9---9-9---|-6---6-6---6-6---|-8---8-8---8-8---|
A|-8---8-8---8-8---|-7---7-7---7-7---|-6---6-6---6-6---|-8---8-8---8-8---|
E|-6---6-6---6-6---|-----------------|-4---4-4---4-4---|-6---6-6---6-6---|
 
e|-----------------|-----------------|---------------|
B|-----------------|-----------------|---------------|
G|-9---9-9---9-9---|-----------------|---------------|
D|-9---9-9---9-9---|-----------------|-6-x-----------|
A|-7---7-7---7-7---|-6-6-6-6-6-6-6-6-|-6-x-----------|
E|-----------------|-4-4-4-4-4-4-4-4-|-4-x-----------|
                     . . . . . . . .
 
[Chorus]
e|-------------------|    |-----------------|-------------------|    |-----------------|-------------------|
B|-------------------| x1 |-----------------|-------------------| x3 |-----------------|-------------------|x1
G|---------11---12---|    |-9---9-9-9-9-9-9-|-9-9-9-9-11---12---|    |-9---9-9-9-9-9-9-|-8---8-8-11---12---|
D|---------x----x----|    |-x---x-x-x-x-x-x-|-x-x-x-x-x----x----|    |-x---x-x-x-x-x-x-|-x---x-x-x----x----|
A|---------9----10---|    |-7---7-7-7-7-7-7-|-7-7-7-7-9----10---|    |-7---7-7-7-7-7-7-|-6---6-6-9----10---|
E|-------------------|    |-----------------|-------------------|    |-----------------|-------------------|
 
e|-----------------|-------------------|     |-----------------|-------------------|
B|-----------------|-------------------| x3  |-----------------|-------------------| x1
G|-9---9-9-9-9-9-9-|-9-9-9-9-11---12---|     |-9---9-9-9-9-9-9-|-8---8-8-11---12---|
D|-x---x-x-x-x-x-x-|-x-x-x-x-x----x----|     |-x---x-x-x-x-x-x-|-x---x-x-x----x----|
A|-7---7-7-7-7-7-7-|-7-7-7-7-9----10---|     |-7---7-7-7-7-7-7-|-6---6-6-9----10---|
E|-----------------|-------------------|     |-----------------|-------------------|
 
[Solo] x2
e|-----------------|-----------------|------------------------|-------------------------|
B|-----------------|-----------------|------------------------|-------------------------|
G|-9---9-9-9-9-9-9-|-9-9-9-9-9-9-9-9-|------------------------|-------------------------|
D|-9---9-9-9-9-9-9-|-9-9-9-9-9-9-9-9-|-12---12-12-12-12-12-12-|-12-12-12-12-12-12-12-12-|
A|-7---7-7-7-7-7-7-|-7-7-7-7-7-7-7-7-|-12---12-12-12-12-12-12-|-12-12-12-12-12-12-12-12-|
E|-----------------|-----------------|-10---10-10-10-10-10-10-|-10-10-10-10-10-10-10-10-|
 
e|------------------------|-------------------------|-----------------|-----------------|
B|------------------------|-------------------------|-----------------|-----------------|
G|------------------------|-------------------------|-----------------|-----------------|
D|-10---10-10-10-10-10-10-|-10-10-10-10-10-10-10-10-|-9---9-9-9-9-9-9-|-9-9-9-9-9-9-9-9-|
A|-10---10-10-10-10-10-10-|-10-10-10-10-10-10-10-10-|-9---9-9-9-9-9-9-|-9-9-9-9-9-9-9-9-|
E|-8----8--8--8--8--8--8--|-8--8--8--8--8--8--8--8--|-7---7-7-7-7-7-7-|-7-7-7-7-7-7-7-7-|
 
[Outro]
e|-----------------|-------------------|     |-----------------|-------------------|
B|-----------------|-------------------| x3  |-----------------|-------------------| x1
G|-9---9-9-9-9-9-9-|-9-9-9-9-11---12---|     |-9---9-9-9-9-9-9-|-8---8-8-11---12---|
D|-x---x-x-x-x-x-x-|-x-x-x-x-x----x----|     |-x---x-x-x-x-x-x-|-x---x-x-x----x----|
A|-7---7-7-7-7-7-7-|-7-7-7-7-9----10---|     |-7---7-7-7-7-7-7-|-6---6-6-9----10---|
E|-----------------|-------------------|     |-----------------|-------------------|
 
[End]
e|-----------------|
B|-----------------|
G|-9---9-x---------|
D|-9---9-x---------|
A|-7---7-x---------|
E|-----------------|
            
Submit corrections

↑ Back to top | Tablatures and chords for acoustic guitar and electric guitar, ukulele, drums are parodies/interpretations of the original songs. You may use it for private study, scholarship, research or language learning purposes only