» » »

Adema - Tornado Bass

Artists:  A B C D E F G H I J K L M N O P Q R S T U V W X Y Z # 

Tornado Bass

(ver. 1) Click to play this song!
Adema
 Rating:
4/5 (4 votes)


 Tornado lessons Tabs too difficult? Try these video lessons and learn fast
 
                Intro: Part 1 (Played X2) 
|-----------------|-----------------|-----------------|-----------------| 
|-----------------|-----------------|-----------------|-----------------| 
|-----------------|-----------------|-----------------|-----------------| 
|-5-5-5-5-5-4-4-2-|-2-2-2-2-2-2-5-5-|-5-0-0-0-0-0-0-0-|-0-0-0-0-0-0-0-0-| 


Pre-Verse:
|-----------------|-----------------|-----------------|-----------------| 
|-----------------|-----------------|-----------------|-----------------| 
|-----4-----4---4-|-----4-----4---4-|-----4-----4---4-|-----3-----------|
|-2-2---2-2---2---|-5-5---5-5---5---|-0-0---0-0---0---|-0-0---5-5-5-0-0-| 

Verse: 
|-----------------|-----------------|-----------------|-----------------| 
|-----------------|-----------------|-----------------|-----------------| 
|-----4-----4---4-|-----4-----4---4-|-----4-----4---4-|-----3-----------|
|-2-2---2-2---2---|-5-5---5-5---5---|-0-0---0-0---0---|-0-0---5-5-5-0-0-|

|-----------------|-----------------|-----------------|-----------------| 
|-----------------|-----------------|-----------------|-----------------| 
|-----4-----4---4-|-----4-----4---4-|-----4-----4---4-|-0-0-0-0---------|
|-2-2---2-2---2---|-5-5---5-5---5---|-0-0---0-0---0---|---------0-0-0-0-| 

|-----------------|-----------------|-----------------|-----------------| 
|-----------------|-----------------|-----------------|-----------------| 
|-----4-----4---4-|-----4-----4---4-|-----4-----4---4-|-----3-----------|
|-2-2---2-2---2---|-5-5---5-5---5---|-0-0---0-0---0---|-0-0---5-5-5-0-0-|

|-----------------|-----------------|-----------------|-----------------| 
|-----------------|-----------------|-----------------|-2-2-2-2-7-7-7-7-| 
|-----4-----4---4-|-----4-----4---4-|-----4-----4---4-|-----------------|
|-2-2---2-2---2---|-5-5---5-5---5---|-0-0---0-0---0---|-----------------|

Chorus: Intro

Then play
|-----------------|-----------------|-----------------|-----------------|
|-----12-----12---|------12-----12--|-----------------|-----------------|
|-9-9----9-9----9-|-----------------|-----------------|-----------------|
|-----------------|-11-11--11-11-11-|-----------------|-----------------|

Do the verse again, Then the chorus (Intro) ... Then it’s the bridge:

First part of bridge: X2 
|--------------------------|---------------------------|-----------------|-----------------|
|--------------------------|---------------------------|-----------------|-----------------|
|--------2-------2---------|-------2-------2-----4-----|-----------------|-----------------| 
|-5-4-5----5-4-5---5-5-4-0-|-5-4-5---5-4-5---5-5---4-0-|-----------------|-----------------|

Then play this after the part above:
|-----------------|-----------------|-----------------|-----------------|
|-----------------|-----------------|-----------------|-----------------|
|-----2---3---0---|-2-------0-------|-----2---3---0---|-2-------0-------| 
|-----------------|-----5-------4---|-----------------|-----5-------4---| 

After the bridge do this:
|-----------------|-----------------|-----------------|-----------------| 
|-----------------|-----------------|-----------------|-----------------| 
|-----4-----4---4-|-----4-----4---4-|-----4-----4---4-|-----3-----------|
|-2-2---2-2---2---|-5-5---5-5---5---|-0-0---0-0---0---|-0-0---5-5-5-0-0-|

Bass Part
|-----------------|-----------------|-----------------|-----------------|
|-----------------|-----------------|-----------------|-----------------|
|-----------------|-----------------|-----------------|-----------------|
|-5-5-5-5-5-4-4-2-|-2-2-2-2-2-2-5-5-|-5-0-0-0-0-0-0-0-|-0-0-0-0-0-0-0-0-| 

Outro Part 1 (Played X4) 
|-----------------|-----------------|-----------------|-----------------|
|-----------------|-----------------|-----------------|-----------------|
|-----------0-0-0-|-2-2-2-2-2-5-5-5-|-4-4-4-4-4-4-4-4-|-4-4-4-4-4-4-4-4-| 
|-3-3-3-3-3-------|-----------------|-----------------|-----------------| 

After part 1 play this:
|-----------------|-----------------|-----------------|-----------------| 
|-----------------|-----------------|-----------------|-----------------|
|-----------------|-----------------|-----------------|-----------------|
|-5---------4---2-|-------5-5-----0-|-0---------------|-----------------|

I think that is it, You may need to change the Bass solo and the parts after the chorus.
            
Submit corrections



        Tornado lessons Hard to play? Try these video lessons and learn fast Tornado lessons
        
↑ Back to top | Tablatures and chords for acoustic guitar and electric guitar, ukulele, drums are parodies/interpretations of the original songs. You may use it for private study, scholarship, research or language learning purposes only