» » »

Adele - Rolling In The Deep Bass

Artists:  A B C D E F G H I J K L M N O P Q R S T U V W X Y Z # 

Rolling In The Deep Bass

(ver. 3) Click to play this song!
Adele
 Rating:
4/5 (4 votes)
                
Tuning: standard

If you have any corrections, just send me an e-mail.

pre-chorus (0:40)
G|-----------------|----------------|---------------|-----------------| 2X
D|-----------------|----------------|---------------|-----------------|
A|-----------------|1-1-1-1-1-1-1-1-|---------------|---------1-1-1-1-|
E|-4-4-4-4-4-4-4-4-|----------------|3-3-3-3-3-3-3-3|-4-4-4-4---------|

chorus (0:58)

G|-----------------|----------------|----------------|----------------| 2X
D|-----------------|----------------|----------------|----------------|
A|-3-3-3-3-3-3-3-3-|1-1-1-1-1-1-1-1-|----------------|1-1-1-1-2-2-2-2-|
E|-----------------|----------------|4-4-4-4-4-4-4-4-|----------------|
   
verse (1:18)

chord change comes after the beat

G|-----------------|----------------|----------------|----------------| 2x
D|-----------------|----------------|----------------|----------------|
A|-3-3-3-3-3-3-3-3-|3-1-1-1-1-1-1-1-|1---------------|--1-1-1-1-1-1-1-|
E|-----------------|----------------|--4-4-4-4-4-4-4-|4---------------|
   1 + 2 + 3 + 4 +  1 + 2 + ...

pre-chorus (1:35)
G|-----------------|----------------|---------------|-----------------| 2X
D|-----------------|----------------|---------------|-----------------|
A|-----------------|1-1-1-1-1-1-1-1-|---------------|---------1-1-1-1-|
E|-4-4-4-4-4-4-4-4-|----------------|3-3-3-3-3-3-3-3|-4-4-4-4---------|

chorus (1:52)

G|-----------------|----------------|----------------|----------------| 3X
D|-----------------|----------------|----------------|----------------|
A|-3-3-3-3-3-3-3-3-|1-1-1-1-1-1-1-1-|----------------|1-1-1-1-2-2-2-2-|
E|-----------------|----------------|4-4-4-4-4-4-4-4-|----------------|

than at 2:22  (still chorus)

G|-----------------|----------------|----------------|----------------|
D|-----------------|----------------|----------------|----------------|
A|-3-3-3-3-3-3-3-3-|1-1-1-1-1-1-1-1-|----------------|1-1-1-1-22222222|
E|-----------------|----------------|4-4-4-4-4-4-4-4-|----------------|

than have a break while bass drum is playing
than:

bridge (2:40)

G|-----------------|----------------|----------------|----------------| 1X
D|-----------------|----------------|----------------|----------------|
A|-x-3-x-3-x-3-x-3-|x-3-x-3-x-3-x-3-|x-3-x-3-x-3-x-3-|x-3-x-3-x-3-x-3-|
E|-----------------|----------------|----------------|----------------|
   1 + 2 + 3 + 4 +  1 + 2 + ...
G|-----------------|----------------|----------------|----------------| 
D|-----------------|----------------|----------------|----------------|
A|-3~--------------|1~--------------|----------------|1~------2~------|
E|-----------------|----------------|4~--------------|----------------|

G|-----------------|----------------|----------------|----------------| 
D|-----------------|----------------|----------------|----------------|
A|-3~--------------|1~--------------|----------------|1-1-1-1-2-2-2-2-|
E|-----------------|----------------|4~--------------|----------------|

Chorus (3:06)

G|-----------------|----------------|----------------|----------------| 4X
D|-----------------|----------------|----------------|----------------|
A|-3-3-3-3-3-3-3-3-|1-1-1-1-1-1-1-1-|----------------|1-1-1-1-2-2-2-2-|
E|-----------------|----------------|4-4-4-4-4-4-4-4-|----------------|

End
            
Submit corrections

↑ Back to top | Tablatures and chords for acoustic guitar and electric guitar, ukulele, drums are parodies/interpretations of the original songs. You may use it for private study, scholarship, research or language learning purposes only