» » »

Adele - Million Years Ago Tabs

Artists:  A B C D E F G H I J K L M N O P Q R S T U V W X Y Z # 

Million Years Ago Tabs

(ver. 1) Click to play this song!
Adele
 Rating:
3/5 (1 vote)

 Million Years Ago  lessons Tabs too difficult? Try these video lessons and learn fast
 
                Capo on fret 2


[INTRO]

     Bm   A   Em/G  F#m7                    
E||----------------------|
B||--3----2--------------|
G||------------4----2----|
D||--4----2----2----2----|
A||--2----0--------------|
E||------------3----2----|

[VERSE]

  Bm                 Em7 
-------------------|--------------------------|
--3----------------|-----------0--------------|
--4----------------|*----0-----------0-----0--|
--4----------------|*-------0-----------0-----|
--2----------------|--------------------------|
-------------------|--0-----------------------|


 A7                         Dmaj7
--------------------------|-----------2--------------|
-----------2--------------|-----2-----------2-----2--|
-----0-----------0-----0--|--------2-----------2-----|
--------2-----------2-----|--0-----------------------|
--0-----------------------|--------------------------|
--------------------------|--------------------------|


Gadd2                      Em
--------------------------|--------------------------|
-----------0--------------|-----------0--------------|
-----2-----------2-----2--|-----0-----------0-----0--|
--------0-----------0-----|--------2-----------2-----|
--------------------------|--------------------------|
--3-----------------------|--0-----------------------|


F#7                         Bm7
--------------------------|--------------------------|
-----------2--------------|-----------3--------------|
-----3-----------3-----3--|-----2-----------2-----2--|
--------2-----------2-----|--------4-----------4-----|
--------------------------|--2-----------------------|
--2-----------------------|--------------------------|


Bm7           B7           Em7 
--------------------------|--------------------------|
--------3-----------4-----|-----------0--------------|
-----------2-----------2--|-----0-----------0-----0--|
-----4-----------4--------|--------0-----------0-----|
--2-----------2-----------|--------------------------|
--------------------------|--0-----------------------|


 A7                         Dmaj7
--------------------------|-----------2--------------|
-----------2--------------|-----2-----------2-----2--|
-----0-----------0-----0--|--------2-----------2-----|
--------2-----------2-----|--0-----------------------|
--0-----------------------|--------------------------|
--------------------------|--------------------------|


Gadd2                      Em
--------------------------|--------------------------|
-----------0--------------|-----------0--------------|
-----2-----------2-----2--|-----0-----------0-----0--|
--------0-----------0-----|--------2-----------2-----|
--------------------------|--------------------------|
--3-----------------------|--0-----------------------|


 F#7                       
--------------------------| 
-----------2--------------|
-----3-----------3-----3--|
--------2-----------2-----|
--------------------------|
--2-----------------------|

________________________________________________________________________________________________
|  1                                                                                           |
                                                                                               |
 Bm                   Bm7  A             Gadd2                                                 |
--------------------------|--------------------------|                                         |
--------3--------3--------|--------2-----------0-----|                                         |
-----4--------4--------2--|-----2-----2-----2-----2--|                                         |
--------------------------|--------------------------|                                         |
--2--------2--------2-----|--0-----------------------|                                         |
--------------------------|--------------3-----------|                                         |
                                                                                               |
 Bm7                         A                gadd2    2x                                     |
|---------------------------|---------------------------|                                      |
|---------3--------3--------|--------2-----------0------|                                      |
|*-----2--------2--------2--|-----2-----2-----2-----2--*|                                      |
|*--------------------------|--------------------------*|                                      |
|---2--------2--------2-----|--0------------------------|                                      |
|---------------------------|--------------3------------|                                      |
                                                                                               |
                                                                                               |
 F#7                                                                                              |
|--------------------------|---------------------------|                                       |
|--------2--------2-----2--|--------2--------2-----2---|                                       |
|--------3--------3-----3--|--------3--------3-----3--*|                                       |
|-----2--------2-----------|-----2--------2-----------*|                                       |
|--------------------------|---------------------------|                                       |
|--2--------2--------2-----|--2--------2--------2------|                                       |

Repeat all but instead of the  ______ play the  __________
                              | 1              | 2
                                                          

__________________________________________________________________________
| 2

 Bm7
|--------------------------|
|-----------3--------------|
|-----2-----------2-----2--|
|--------4-----------4-----|
|--2-----------------------|
|--------------------------|

Bm7           B7           Em7  
--------------------------|--------------------------|
--------3-----------4-----|-----------0--------------|
-----------2-----------2--|-----0-----------0-----0--|
-----4-----------4--------|--------0-----------0-----|
--2-----------2-----------|--------------------------|
--------------------------|--0-----------------------|


 A7                         Dmaj7
--------------------------|-----------2--------------|
-----------2--------------|-----2-----------2-----2--|
-----0-----------0-----0--|--------2-----------2-----|
--------2-----------2-----|--0-----------------------|
--0-----------------------|--------------------------|
--------------------------|--------------------------|


Gadd2                      Em
--------------------------|--------------------------|
-----------0--------------|-----------0--------------|
-----2-----------2-----2--|-----0-----------0-----0--|
--------0-----------0-----|--------2-----------2-----|
--------------------------|--------------------------|
--3-----------------------|--0-----------------------|


 F#7                         Bm   A   Em/G  F#m7   
--------------------------|----------------------|
-----------2--------------|--3----2--------------|
-----3-----------3-----3--|------------4----2----|
--------2-----------2-----|--4----2----2----2----|
--------------------------|--2----0--------------|
--2-----------------------|------------3----2----|

                      
 Bm                 
-------------------|
--3----------------|
--4----------------|
--4----------------|
--2----------------|
-------------------|  

Repeat exactly what you did 2 times.

End on:

     Bm   A   Em/G  F#m7   Bm                
E||----------------------|-------------------|
B||--3----2--------------|--3----------------|
G||------------4----2----|--4----------------|
D||--4----2----2----2----|--4----------------|
A||--2----0--------------|--2----------------|
E||------------3----2----|-------------------| 

            
Submit corrections


        Million Years Ago  lessons Hard to play? Try these video lessons and learn fast Million Years Ago  lessons
        
↑ Back to top | Tablatures and chords for acoustic guitar and electric guitar, ukulele, drums are parodies/interpretations of the original songs. You may use it for private study, scholarship, research or language learning purposes only