» » »

Adele - Lovesong Tabs

Artists:  A B C D E F G H I J K L M N O P Q R S T U V W X Y Z # 

Lovesong Tabs

(ver. 3) Click to play this song!
Adele
 Rating:
4/5 (4 votes)
    Lovesong lessons Tabs too difficult? Try these video lessons and learn fast
                ...to Kyle76

               Adele - Lovesong (The Cure cover)

Solo starts at 3:34



     Cm            Bb           G#          Gm
e|-----3-------------3------------------------------------|
B|----4-4-6-4-4-----4-4-6-4-4--------------------------3--|
G|---5-------5-----3-------5--------5-3-3---3-------3-5---|
D|------------------------------6~-----5-----3-1-3-5------|
A|--------------------------------------------------------|
E|--------------------------------------------------------|

     Cm            Bb            G#             Gm
e|------3-6-6/8----3-----------------------------------------|
B|---4h6------------8\6-4h6--3---3p2----------3-4/6-4-3-4/6--|
G|---5----------------------5--------3-5p3-3-5--5/7-----5/7--|
D|----------------------------------5-----5------------------|
A|-----------------------------------------------------------|
E|-----------------------------------------------------------|

     Cm              Bb           G#           Gm
e|-----------------------------------------------------------|
B|---4/6-----3-4---------------------------------------------|
G|---5/7--3--3-5-3---3-----3-5--4/5-3-3------3------3--------|
D|--------5------5-5-3--3/5-----5/6--5-5-3---5---3-5---------|
A|-----------------5----------------------6-----6-----6\5-3--|
E|-----------------------------------------------------------|

   Cm              Bb           G#           Gm             Cm
e|--------------------------------------------------3-6------|
B|-------------------------------------3----4/6----3----3-4--|
G|------------------------------5-5-3---5-3-5/7-3-5-----3-5--|
D|--------------------3-5-5-3---6----5-----------------------|
A|---6-3-3-3-------6-3-------6-------------------------------|
E|------6---6-3----------------------------------------------|


...ends at 4:07
            
Submit corrections

↑ Back to top | Tablatures and chords for acoustic guitar and electric guitar, ukulele, drums are parodies/interpretations of the original songs. You may use it for private study, scholarship, research or language learning purposes only