» » »

A Day Late - Time Too Move On Bass

Artists:  A B C D E F G H I J K L M N O P Q R S T U V W X Y Z # 

Time Too Move On Bass

(ver. 1) Click to play this song!
A Day Late
 Rating:
4/5 (4 votes)
                chris dunne 
enjoy this tab
please rate it

Intro Part 1 
G|---------------------------------------------------------------------------| 
D|---------------------------------------------------------------------------| 
A|-7------------0------------------------------------------------------------| 
E|------7---9----------------------------------------------------------------| 

Intro Part 2 
G|---------------------------------------------------------------------------| 
D|---6-7-6---6-7-6---6-7-6----6-7-6------------------------------------------| 
A|-7------------------------0------------------------------------------------| 
E|---------7-------9---------------------------------------------------------| 

Chorus 
G|---------------------------------------------------------------------------| 
D|---------------------------------------------------------------------------| 
A|-7-7-7-7-7-7-7-7---------------------------------0-0-0-0-0-0-0-0-----------| 
E|-----------------7-7-7-7-7-7-7-7-9-9-9-9-9-9-9-9---------------------------| 

Verse 
G|---------------------------------------------------------------------------| 
D|---------6-6-7-7--------------------------3-3-4-4--------------------------| 
A|-7-7-7-7-----------------6-6-7-7--4-4-4-4-----------------4-4-5-5----------| 
E|-----------------7-7-7-7--------------------------4-4-4-4------------------|
            
Submit corrections

↑ Back to top | Tablatures and chords for acoustic guitar and electric guitar, ukulele, drums are parodies/interpretations of the original songs. You may use it for private study, scholarship, research or language learning purposes only