» » »

A Cursive Memory - Piano Song Tabs

Artists:  A B C D E F G H I J K L M N O P Q R S T U V W X Y Z # 

Piano Song Tabs

(ver. 3) Click to play this song!
A Cursive Memory
 Rating:
4.4/5 (7 votes)


 Piano Song lessons Tabs too difficult? Try these video lessons and learn fast
 
                The piano song- A Cursive Memory
a little off but its my first tab:) so shutup and play

Intro

Guitar 1
e----------------------------------------------------------------|
A----------------------------------------------------------------|
D-----------------------------------------5-----5------5---------| (x4)
G---5-6---5-6---5-----5-6---5-6---6---5-6---5-6---5-6-----8--6---|
B-8-----8-----8-----6-----6-----6--------------------------------|
E----------------------------------------------------------------|

After 2 times of Guitar 1, Guitar 2 comes in

Guitar 2
e------------------|
A------------------|
D------------------|
G------------------|  (x2)
B-3---5---6---10---|
E-1---3---4---8----|

Intro cont.

Guitar 1
e-----------------------------------------------------------------|
A----8-9-----8-9----8----8-9---8-9---8------8-----8-----8---------|
D-10------10-----10----8-----8-----8----8-9---8-9---8-9----11--9--|
G-----------------------------------------------------------------| (x3)
B-----------------------------------------------------------------|
E-----------------------------------------------------------------|


Guitar 2
e--------------------------------------------------     e------|  after 3rd
A--------------------------------------------------     A------|  play let
D--------------------------------------------------     D------|  it ring.
G-3------5------6------10--------------------------(x3) G--3~~-|
B-3-(x8)-5-(x8)-6-(x8)-10-(x8)---------------------     B--3~~-|
E-1------3------4------8---------------------------     E--1~~-|

Verse

Guitar 1
e--------------------------------------------------------------|
A--------------------------------------------------------------|
D---------------------------------------5-----5------5---------| (x4)
G---5-6---5-6---5----5-6---5-6---6--5-6---5-6---5-6-----8--6---|
B-8-----8-----8----6-----6-----6-------------------------------|
E--------------------------------------------------------------|

After second play of Guitar 1, Guitar 2 comes in

Guitar 2
e------------------       e---------------------------------|
A------------------       A---------------------------------|
D------------------       D---------------------------------|
G------------------  (x2) G---------------------------------|  (x2)
B-3---5---6---10---       B--3-(x8)-5-(x8)-6-(x8)-10-(x8)---|
E-1---3---4---8----       E--1------3------4------8---------|
                         pm.................................

Chorus

Guitar 1
e----------------------------------------------------------------|
A----8-9-----8-9----8----8-9---8-9---8-----8-----8-----8---------|
D-10------10-----10----8-----8-----8---8-9---8-9---8-9----11--9--|
G----------------------------------------------------------------| (x2)
B----------------------------------------------------------------|
E----------------------------------------------------------------|


Guitar 2
e--------------------------------     e------|   after fourth play
A--------------------------------     A------|   let it ring
D--------------------------------     D------|
G-3------5------6------10--------(x4) G--3~~-|
B-3-(x8)-5-(x8)-6-(x8)-10-(x8)---     B--3~~-|
E-1------3------4------8---------     E--1~~-|

Guitar 1
e------------------8------8---8----------|
A-----8-9-8----8-9----8-9---9----11-9-8--|
D--10--------8---------------------------|
G----------------------------------------|
B----------------------------------------|
E----------------------------------------|

e------------------8------8---8-9-8------|
A-----8-9-8----8-9----8-9---9-------11---|
D--10--------8---------------------------|
G----------------------------------------|
B----------------------------------------|
E----------------------------------------|

Verse 2

Guitar 1
e--------------------------------------------------------------|
A--------------------------------------------------------------|
D---------------------------------------5-----5------5---------| (x4)
G---5-6---5-6---5----5-6---5-6---6--5-6---5-6---5-6-----8--6---|
B-8-----8-----8----6-----6-----6-------------------------------|
E--------------------------------------------------------------|

After second play of Guitar 1, Guitar 2 comes in

Guitar 2
e------------------       e---------------------------------|
A------------------       A---------------------------------|
D------------------       D---------------------------------|
G------------------  (X2) G---------------------------------|  (x2)
B-3---5---6---10---       B--3-(x8)-5-(x8)-6-(x8)-10-(x8)---|
E-1---3---4---8----       E--1------3------4------8---------|
                         pm.................................

Chorus

Guitar 1
e----------------------------------------------------------------|
A----8-9-----8-9----8----8-9---8-9---8-----8-----8-----8---------|
D-10------10-----10----8-----8-----8---8-9---8-9---8-9----11--9--|
G----------------------------------------------------------------| (x2)
B----------------------------------------------------------------|
E----------------------------------------------------------------|


Guitar 2
e--------------------------------|
A--------------------------------|
D--------------------------------|
G-3------5------6------10--------|(x4)
B-3-(x8)-5-(x8)-6-(x8)-10-(x8)---|
E-1------3------4------8---------|

Guitar 1
e------------------8------8---8----------|
A-----8-9-8----8-9----8-9---9----11-9-8--|
D--10--------8---------------------------|
G----------------------------------------|
B----------------------------------------|
E----------------------------------------|

e------------------8------8---8-9-8------|
A-----8-9-8----8-9----8-9---9-------11---|
D--10--------8---------------------------|
G----------------------------------------|
B----------------------------------------|
E----------------------------------------|

Solo

Guitar 1

e-----------8/11-----------8/11--1111-99-88-------1111-99-88------------|
A-8h9-8h9p8------8h9-8h9p9-------------------1111------------1111-------|
D-----------------------------------------------------------------------|
G-----------------------------------------------------------------------|(x2)
B-----------------------------------------------------------------------|
E-----------------------------------------------------------------------|

e--11-9-8-----------999-88--11-9-8----------999-88---|
A---------99999-888----------------99999-888---------|
D----------------------------------------------------|
G----------------------------------------------------|
B----------------------------------------------------|
E----------------------------------------------------|

e--11-9-8-(x5)-9-8-9-8-9-8-9-8--11-9-11-9-11-9-11-9--13-11-13-11-13-11-13-11-|
A----------------------------------------------------------------------------|
D----------------------------------------------------------------------------|
G----------------------------------------------------------------------------|
B----------------------------------------------------------------------------|
E----------------------------------------------------------------------------|

e--15-13-15-13-15-13-15-13--17-16-17-16-17-16-17-16--16/19b-------|
A-----------------------------------------------------------------|
D-----------------------------------------------------------------|
G-----------------------------------------------------------------|
B-----------------------------------------------------------------|
E-----------------------------------------------------------------|

Chorus

Guitar 1
e----------------------------------------------------------------|
A----8-9-----8-9----8----8-9---8-9---8-----8-----8-----8---------|
D-10------10-----10----8-----8-----8---8-9---8-9---8-9----11--9--|
G----------------------------------------------------------------| (x2)
B----------------------------------------------------------------|
E----------------------------------------------------------------|


Guitar 2
e--------------------------------     e------|
A--------------------------------     A------|   After 6th Play
D--------------------------------     D------|    let it ring
G-3------5------6------10--------(x6) G--3~~-|
B-3-(x8)-5-(x8)-6-(x8)-10-(x8)---     B--3~~-|
E-1------3------4------8---------     E--1~~-|

Guitar 1
e------------------8------8---8--------------|
A-----8-9-8----8-9----8-9---9----11-9-8------|
D--10--------8-------------------------------|
G----------------------------------------\---|
B----------------------------------------\\--|
E---------------------------------------- \\-|
                                           \\
                                           |x3|
                                           //
e------------------8------8---8-9-8------ //-|
A-----8-9-8----8-9----8-9---9-------11---//--|
D--10--------8-------------------------------|
G--------------------------------------------|
B--------------------------------------------|
E--------------------------------------------|

Outro

Guitar 1
e----------------------------------------------------------------|
A----------------------------------------------------------------|
D-----------------------------------------5-----5------5---------|
G---5-6---5-6---5-----5-6---5-6---6---5-6---5-6---5-6-----8--6---|
B-8-----8-----8-----6-----6-----6--------------------------------|
E----------------------------------------------------------------|

e-------------------------------------|-----------|----------------|
A-------------------------------------|-----------|----------------|
D-------------------------------------|----5------|-----4~~--------|
G---5-6---5-6---5-----5-6---5-6---6---|5-6---(x17)|-----5~~--------|
B-8-----8-----8-----6-----6-----6-----|-----------|-----7~~--------|
E-------------------------------------|-----------|----------------|
            
Submit corrections



        Piano Song lessons Hard to play? Try these video lessons and learn fast Piano Song lessons
        
↑ Back to top | Tablatures and chords for acoustic guitar and electric guitar, ukulele, drums are parodies/interpretations of the original songs. You may use it for private study, scholarship, research or language learning purposes only