» » »

Across Five Aprils - Hearts, Necks And Other Things That Break Tabs

Artists:  A B C D E F G H I J K L M N O P Q R S T U V W X Y Z # 

Hearts, Necks And Other Things That Break Tabs

(ver. 1) Click to play this song!
Across Five Aprils
 Rating:
4/5 (4 votes)


 Hearts, Necks And Other Things That Break lessons Tabs too difficult? Try these video lessons and learn fast
 
                Hey Everyone - Was Bored One Day So I Figured Out The Tab For Both Guitars Of This Song 

^ = Palm Mute.
/ = Slide Up.
\ = Slide Down.
* = Let Note Ring.
h = Hammer On.
p = Pull Offs.
> = Tremelo Picking.
+ = Pinch Harmonics.
b = Bend DOWN!!!

INTRO - Both Guitars (0:00 - 0:29)
|----------|----------6-5----------6-5-| Both Guitars Play This 8 Times.
|----------|---------------------------|
|----------|---------------------------|
|----------|---------------------------|
|--000-000-|--000-000------000-000-----|
|--000-000-|--000-000------000-000-----|
   ^^^ ^^*    ^^^ ^^^      ^^^ ^^^

VERSE ONE - Guitar One (0:29 - 0:38)
|---------------------------------------------------------| Guitar One Plays
|---------------------------------------------------------| This Only 1 Time
|----------------------2----------------------------------|
|--7-----5------3------2------5------7------8------10-----|
|--5-----3------1------0------5------7------8------10-----|
|-----------------------------5------7------8------10-----|
                              *
VERSE ONE - Guitar Two (0:29 - 0:38)
|---------------------------------------------------------------------------| Guitar
|---------------------------------------------------------------------------| 2 Only
|---------------------------------------------------------------------------| Plays
|---7-5h7--7-5h7--7-5h7--7-5h7--7-5h7--7-5h7--7-5h7--10-10-8-8-7-7-| This 1-|
|---------------------------------------------------------------------------| Time.
|---------------------------------------------------------------------------|

VERSE ONE Continues With A Little Change On Guitar 1 - Guitar Two Remains The Same! This 
the change in guitar 1 Verse 1 (0:38 - 0:57)
|---------------------------------------------------------------| Guitar 1
|---------------------------------------------------------------| Plays This
|-----------------------2-2222----------------------------------| Twice.
|--7-7777-5-5555-3-3333-2-2222-5-5555-7-7777-8-8888-10-10101010-|
|--5-5555-3-3333-1-1111-0-0000-5-5555-7-7777-8-8888-10-10101010-|
|------------------------------5-5555-7-7777-8-8888-10-10101010-|
     ^^^^   ^^^^   ^^^^   ^^^^   ^^^^   ^^^^   ^^^^    ^ ^ ^ ^

VERSE ONE - Guitar One (0:57 - 1:02)
|----|
|----| Guitar 1 Plays This Only Once.
|----|
|--7-|
|--5-|
|----|
   ^

VERSE ONE - Guitar 2 (0:57 - 1:02)
|-----------|
|-----------| Guitar Plays This Only Once.
|-----------|
|-----------|
|-----7--8--|
|-----------|

BRIDGE PART BEFORE CHORUS - Guitar 1 And Guitar 2 (1:02 - 1:11)
|---------------------------------------------------------------------|
|---------------------------------------------------------------------|
|------3-------3--------2-------2-------------------------------------|
|--5-5---5-5-5---5--3-3---3-3-3---3------3-------3--------0-------0---|
|------------------------------------5-5---5-5-5---5--1-1---1-1-1---1-|
|---------------------------------------------------------------------|
   ^ ^ ^ ^ ^ ^ ^ ^  ^ ^ ^ ^ ^ ^ ^ ^  ^ ^ ^ ^ ^ ^ ^ ^  ^ ^ ^ ^ ^ ^ ^ ^
 -----------------------------------------------------|
 -----------------------------------------------------| Both Guitars Play
 -----------------------------------------------------| This Only 1 Time.
 ------3-------3--------5-------5--------2-------2----|
 --5-5---5-5-5---5--7-7---7-7-7---7--3-3---3-3-3---3--|
 -----------------------------------------------------|
   ^ ^ ^ ^ ^ ^ ^ ^  ^ ^ ^ ^ ^ ^ ^ ^  ^ ^ ^ ^ ^ ^ ^ ^
In The same BRIDGE (1:11 - 1:30) Guitar 2 Changes But Still Plays Over Guitar 1 As bove.
|-----------------------------------------------------------------------|
|-----------------------------------------------------------------------|
|--7-7-7-7-7-7-7-7--5-5-5-5-5-5-5-5--2-2-2-2-2-2-2-2--3-3-3-3-3-3-3-3---|
|--5-5-5-5-5-5-5-5--3-3-3-3-3-3-3-3--0-0-0-0-0-0-0-0--1-1-1-1-1-1-1-1---|
|-----------------------------------------------------------------------|
|-----------------------------------------------------------------------|
   ^ ^ ^ ^ ^ ^ ^ ^  ^ ^ ^ ^ ^ ^ ^ ^  ^ ^ ^ ^ ^ ^ ^ ^  ^ ^ ^ ^ ^ ^ ^ ^
 -----------------------------------------------------------------------|
 -----------------------------------------------------------------------|x2
 --7-7-7-7-7-7-7-7--8-8-8-8-8-8-8-8--5-5-5-5-5-5-5-5-5-5-5-5-5-5-5-5----|
 --5-5-5-5-5-5-5-5--7-7-7-7-7-7-7-7--3-3-3-3-3-3-3-3-3-3-3-3-3-3-3-3----|
 -----------------------------------------------------------------------|
 -----------------------------------------------------------------------|
   ^ ^ ^ ^ ^ ^ ^ ^   ^ ^ ^ ^ ^ ^ ^ ^  ^ ^ ^ ^ ^ ^ ^ ^ ^ ^ ^ ^
Little Bit Before Chorus Both Guitars (1:30 - 1:31)
|---------------|
|---------------|
|--10--8--7--5--|
|---------------|
|---------------|
|---------------|

CHORUS - Both Guitars (1:31 - 1:50)
|---------------------------------------|
|---------------------------------------| Both Guitars Play This 4 Times.
|----------7-7-777--8-8-888-9-9-999--x--|
|--55-555--x-x-xxx--x-x-xxx-x-x-xxx--x--|
|--55-555--5-5-555--6-6-666-8-8-888--x--|
|--55-555----------------------------x--|

BRIDGE AFTER CHORUS - Both Guitars (1:50 - 1:58)
|--------------------------------------------------------------------------|
|--------------------------------------------------------------------------|
|--------------------------------------------------------------------------|
|-5-555-5-555-5-555-5-555--1-111-1-111-1-111-1-111--3-333-3-333-3-333-3-333|
|-5-555-5-555-5-555-5-555--1-111-1-111-1-111-1-111--3-333-3-333-3-333-3-333|
|-5-555-5-555-5-555-5-555--1-111-1-111-1-111-1-111--3-333-3-333-3-333-3-333|
  ^ ^^^ ^ ^^^ ^ ^^^ ^ ^^^  ^ ^^^ ^ ^^^ ^ ^^^ ^ ^^^  ^ ^^^ ^ ^^^ ^ ^^^ ^ ^^^
BREAK DOWN 1 - Both Guitars ( 1:58 - 2:22)
|------------------------|
|------------------------| Both Guitars Play This 8 Times.
|------------------------|
|--00-0-0--0-00-0-00000--|
|--00-0-0--0-00-0-00000--|
|--00-0-0--0-00-0-00000--|
   ^^      ^    ^ ^^^^^
                  >>>>>

BREAK DOWN 2 - Both Guitars ( 2:22 - 2:34---------------------------|- unusual timing but you'll get it
|------------------------|------------------------------------------|
|------------------------|------------------------------------------|
|--7-7-7-7-7-7-----------|--7-7-7-7-7-----------x--7-7-----------x--|
|--x-x-x-x-x-x--3h5/1p0--|--x-x-x-x-x--3h5/1p0--x--x-x--3h5/1p0--x--|
|--5-5-5-5-5-5--3h5/1p0--|--5-5-5-5-5--3h5/1p0--x--5-5--3h5/1p0--x--|
|---------------3h5/1p0--|-------------3h5/1p0--x-------3h5/1p0--x--|

|--------------------------------------------------------------------|
|--------------------------------------------------------------------|
|--7-7-----------x--7-7-7-7-7-----------7-7-----------7-7------------|
|--x-x--3h5/1p0--x--x-x-x-x-x--3h5/1p0--x-x--3h5/1p0--x-x--3h5/1p0---|
|--5-5--3h5/1p0--x--5-5-5-5-5--3h5/1p0--5-5--3h5/1p0--5-5--3h5/1p0---|
|-------3h5/1p0--x-------------3h5/1p0-------3h5/1p0-------3h5/1p0---|

BREAK DOWN 2 - drums slow down and guitars changes its rythm (2:34 - 2:45)
|---------------------| Both Guitars Play This Part 4 Times.
|---------------------|
|--7-7-7-7-7----------|
|--x-x-x-x-x-3h5/1p0--|
|--5-5-5-5-5-3h5/1p0--|
|------------3h5/1p0--|

Then Guitars Stop And Drums Play Along With Vocals (2:45 - 2:59)

BREAK DOWN 3 - Both guitars - 2:59 - 3:11-|
|-----------------------------------------|
|-----------------------------------------| Both Guitars Play This 2 Times.
|-----------------------------------------|
|--000-000--000-000--000-000--00-000------|
|--000-000--000-000--000-000--00-000------|
|--000-000--000-000--000-000--00-000-5----|
   ^^^ ^^^  ^^^ ^^^^ ^^^ ^^^  ^^ ^^^ +
                                     b
BREAK DOWN 3 - Both Guitars - (3:11 - 3:23-|
|------------------------------------------| Both Guitars Play This 4 Times.
|----------13-13------------13-13----------|
|----------16-16------------16-16----------|
|--000-000---------000-000-----------------|
|--000-000---------000-000-----------------|
|--000-000---------000-000-----------------|

CODA - Both Guitars - 3:23 - 3:25-|
|---------------------------------|
|---------------------------------|
|---------------------------------|
|--8-8-8-8-8-8-8-8----------------|
|--8-8-8-8-8-8-8-8----------------|
|--8-8-8-8-8-8-8-8----------------|

THE END

Enjoy

Mike.G.....
            
Submit corrections



        Hearts, Necks And Other Things That Break lessons Hard to play? Try these video lessons and learn fast Hearts, Necks And Other Things That Break lessons
        
↑ Back to top | Tablatures and chords for acoustic guitar and electric guitar, ukulele, drums are parodies/interpretations of the original songs. You may use it for private study, scholarship, research or language learning purposes only