Home » A » Acid Drinkers »

Acid Drinkers - Street Rockin Tabs

Artists:  A B C D E F G H I J K L M N O P Q R S T U V W X Y Z # 

Street Rockin Tabs

(ver. 1) Click to play this song!
Acid Drinkers
[Intro]
 
e|----------------------------------------------------|
B|----------------------------------------------------|
G|----------------------------------------------------|
D|-2h4p2----------------------------------------------|
A|-------4-2-2h4p2---2-4~~~~~~~~~~~~~~~~~~~~~~~~~~~~--|
E|-----------------4----------------------------------|
 
 |                         PM----|           PM-|
e|----------------------------------------------------|
B|----------------------------------------------------|
G|---------------------------------3AHb~----------5b~-|
D|-3h5p3--------------------3-0-3------------3-0------|
A|-------5-3\1h3p1-5-5-5-5----------------------------|
E|-----------------3-3-3-3----------------------------|
 
 |                         PM----|           PM-|
e|----------------------------------------------------|
B|----------------------------------------------------|
G|--------------------------------3AHb~---------------|
D|-3h5p3--------------------3-0-3------------3-0-3AH~-|
A|-------5-3\1h3p1-5-5-5-5----------------------------|
E|-----------------3-3-3-3----------------------------|
 
 |                          PM-------|
e|---------------------------------------------------------|
B|--------------------------------------3p2p0-3p2p0--------|
G|---------------------------------0----------------4p3p0--|
D|-3h5p3--------------------0-3-0--------------------------|
A|-------5-3\1h3p1-5-5-5-5---------------------------------|
E|-----------------3-3-3-3---------------------------------|
 
                           PM--| PM--|
e|--------------------------------------------------------|
B|-----------------------------------------3--------------|
G|--------------------------------------5b---5-3----------|
D|-3h5p3--------------------0-0-3-0-0-3----------5-3----3-|
A|-------5-3\1h3p1-5-5-5-5---------------------------5--1-|
E|-----------------3-3-3-3--------------------------------|
 
                 PM----|      PM--|                  x3
e|---------------------------------------------------|
B|---------------------------------------------------|
G|-----------------------3AHb------------------------|
D|---------------3-0-3-0-------3-0-3AH---5p3---------|
A|---5--5--5--5-------------------------------5p3\1--|
E|---3--3--3--3--------------------------------------|
 
e|-----------------------------|
B|-----------------------------|
G|-----------------------------|
D|--------------3--3--5p3------|
A|--5--5--5--5--1--5------5p3--|
E|--3--3--3--3-----------------|
 
                                x3
e|------------------------------|------15---15---15---15--|
B|------------------------------|-----15---15---15---15---|
G|------------------------------|---17b---17b--17b--17b---|
D|--7-------------------------5-|-------------------------|
A|--5-x-x-5p3-x-x-5p3-x-x-5h7---|-------------------------|
E|------------------------------|-------------------------|
 |
 |Guitar 2
 |                             x3
e|------------------------------|-------------------------|
B|------------------------------|-------------------------|
G|------------------------------|-------------------------|
D|--7-----7-------7-----------5-|-------------------------|
A|--5-x-x-5---x-x-5---x-x-5h7---|-------------------------|
E|------------------------------|-------------------------| 
 
[Verse 1]
 
  Guitar 1
     PM---------|      PM   PM    x4 PM--------------------|
e|--------------------------------|--------------------------5-6-7-8--|
B|--------------------------------|--------------------------5-6-7-8--|
G|--------------------------------|-----------------------------------|
D|-7-------------7-\-5--5-5--5-5--|--2-2-2-2-2-2-2-2-2-2-2-2----------|
A|-5-5-5-5-5-5-5-5-\-3--3-3--3-3--|--0-0-0-0-0-0-0-0-0-0-0-0----------|
E|--------------------------------|-----------------------------------|
 |
 |Guitar 2
 |                                x4 PM--------------------|
e|-10-10-10-10-10-10\8--8-8--8-8--|-----------------------------------|
B|-10-10-10-10-10-10\8--8-8--8-8--|-----------------------------------|
G|-7--7--7--7--7--7-\5--5-5--5-5--|-----------------------------------|
D|--------------------------------|--2-2-2-2-2-2-2-2-2-2-2-2-7-8-9-10-|
A|--------------------------------|--0-0-0-0-0-0-0-0-0-0-0-0----------|
E|--------------------------------|--------------------------5-6-7-8--|
 
  Guitar 1
                                        x2
e|-10-10-10-10-10-10-10-10\8-8-8--8-8---|
B|-10-10-10-10-10-10-10-10\8-8-8--8-8---|
G|--------------------------------------|
D|--------------------------------------|
A|--------------------------------------|
E|--------------------------------------|
 |
 |Guitar 2
 |   PM---------|      PM   PM
e|--------------------------------------|
B|--------------------------------------|
G|--------------------------------------|
D|-7-------------7-\-5--5-5--5-5--------|
A|-5-5-5-5-5-5-5-5-\-3--3-3--3-3--------|
E|--------------------------------------|
 
  Guitar 1
 
e|-13p10----13p10----13p10\8-8-8--8-8---|-13p10----13p10----13p10\-8---|
B|-------10-------10-------8-8-8--8-8---|-------10-------10--------8---|
G|--------------------------------------|------------------------------|
D|--------------------------------------|------------------------------|
A|--------------------------------------|------------------------------|
E|--------------------------------------|------------------------------|
 |
 |Guitar 2
 |   PM---------|      PM   PM
e|--------------------------------------|------------------------------|
B|--------------------------------------|------------------------------|
G|--------------------------------------|------------------------------|
D|-7-------------7-\-5--5-5--5-5--------|-7-----------------5----------|
A|-5-5-5-5-5-5-5-5-\-3--3-3--3-3--------|-5-5-5-5-5-5-5-----3----------|
E|--------------------------------------|------------------------------|
 
[Chorus]
 |:1.2.3.                PM------|       PM---| :|4.                           |
e|-----------------------------------------------|-----------------------------|
B|-----------------------------------------------|-----------------------------|
G|---------------------------------3AH~----------|-----------------------------|
D|--5p3-------------------3-0-3-0--------0-3-0---|--5p3-------------------3--5-|
A|------5p3\1-5--5--5--5-------------------------|------5p3\1-5--5--5--5--1--3-|
E|------------3--3--3--3-------------------------|------------3--3--3--3-------|
 
[Bridge]
 
           PM-------------|      PM    PM           PM-------------|      PM    PM
e|-----|--------------------|-------------------|--------------------|-------------------|
B|-----|--------------------|-------------------|--------------------|-------------------|
G|-5~~-|-2------------------|-5-5---5-5---5~~---|-2------------------|-5-5---5-5---5~~---|
D|-5~~-|-2-2-2-2-2-2-2-2-2--|-5-5---5-5---5~~---|-2-2-2-2-2-2-2-2-2--|-5-5---5-5---5~~---|
A|-----|-0-0-0-0-0-0-0-0-0--|-----0-----0-------|-0-0-0-0-0-0-0-0-0--|-----0-----0-------|
E|-----|--------------------|-------------------|--------------------|-------------------|
 
     PM---------------------------------------------|    PM    PM
e|-----------------------------------------------------------------------|
B|-----------------------------------------------------------------------|
G|--2-------------------------------------------------5-5---5-5----------|
D|--2-2-2-2-2-2-2-2-2-2-2-2-2-2-2-2-2-2-2-2-2-2-2-2-2-5-5---5-5----------|
A|--0-0-0-0-0-0-0-0-0-0-0-0-0-0-0-0-0-0-0-0-0-0-0-0-0-----0-----0--------|
E|-----------------------------------------------------------------------|
 
 
e|--2----------------2--------|
B|--3------------------3------|
G|--2--------------------2----|
D|--0----------------------0--|
A|----------------------------|
E|----------------------------|
 
                       PM-------------|      PM    PM           PM-------------|      PM    PM
e|------------------|--------------------|-------------------|--------------------|-------------|
B|------------------|--------------------|-------------------|--------------------|-------------|
G|--5-5---5-5---5~~-|-2------------------|-5-5---5-5---5~~---|-2------------------|-5-5---5-5---|
D|--5-5---5-5---5~~-|-2-2-2-2-2-2-2-2-2--|-5-5---5-5---5~~---|-2-2-2-2-2-2-2-2-2--|-5-5---5-5---|
A|------0-----0-----|-0-0-0-0-0-0-0-0-0--|-----0-----0-------|-0-0-0-0-0-0-0-0-0--|-----0-----0-|
E|------------------|--------------------|-------------------|--------------------|-------------|
 
                                              PM    PM           PM-------------|      PM    PM
e|----------15-------17----15-------17---|-------------------|--------------------|-------------|
B|--7----------15-------------15---------|-------------------|--------------------|-------------|
G|--7-------------14-------------14------|-5-5---5-5---5~~---|-2------------------|-5-5---5-5---|
D|--7------------------------------------|-5-5---5-5---5~~---|-2-2-2-2-2-2-2-2-2--|-5-5---5-5---|
A|---------------------------------------|-----0-----0-------|-0-0-0-0-0-0-0-0-0--|-----0-----0-|
E|---------------------------------------|-------------------|--------------------|-------------|
 
 
[Solo backing]
                           PM--| x4 PM----------------------------------------------------| x2
e|-------------------------------|---------------------------------------------------------|
B|-------------------------------|---------------------------------------------------------|
G|---------5p0-7p0---------------|---------------------------------------------------------|
D|-7p0-5p0---------7p0-----------|---------------------------------------------------------|
A|---------------------7p0-5-0-5-|-3-3-3-3-3-3-3-3-3-3-3-3-3-3-3-3-6-6-6-6-6-6-6-6-6-6-6-6-|
E|-------------------------------|---------------------------------------------------------|
 
[Outro]
                          x8
e|------------------------|
B|------------------------|
G|------------------------|
D|--10p8------------------|
A|-------10-6-------------|
E|------------8-8-8-8-8---|
            
Submit corrections

↑ Back to top | Tablatures and chords for acoustic guitar and electric guitar, ukulele, drums are parodies/interpretations of the original songs. You may use it for private study, scholarship, research or language learning purposes only