» » »

Acid Bath - New Death Sensation Tabs

Artists:  A B C D E F G H I J K L M N O P Q R S T U V W X Y Z # 

New Death Sensation Tabs

(ver. 4) Click to play this song!
Acid Bath
 Rating:
4.1/5 (31 vote)

 New Death Sensation lessons Tabs too difficult? Try these video lessons and learn fast
 
                
[Intro]
e|-----------|------------------|--------------|--------------------|-------------|------------------|---|
B|-----------|------------------|--------------|--------------------|-------------|------------------|---|
G|-----------|------------------|--------------|--------------------|-------------|3-3-3-3-3-3-4\3---|---|
D|---1-1-1h3-|3-3-3-3-3-1-1-1h3-|3-3-3-3-3-1-1-|4-4-4-4-4-4-3-1-1h3-|3-3-3-3-3-1-1|---------------3-2|---|
A|----4-----1|---1---1---4-----1|---1---1---4--|-1---1---1---1-----1|---1---1---4-|-1---1---1--------|3--|
E|-----------|------------------|--------------|--------------------|-------------|------------------|---|

e|------------------|-------------|------------------|-------------------|------------------|-----------|
B|------------------|-------------|------------------|--1-----1----------|------------------|-----------|
G|------------------|-------------|3-3-3-3-3-3-4\3---|---1---------------|------------------|-----------|
D|2-2-2-2-2-1-1-1h3-|3-3-3-3-3-1-1|---------------3-2|----2--2---1-1-1h3-|3-3-3-3-3-1-1-1h3-|3-3-3-3-3-1|
A|---3---3---4-----1|---1---1---4-|-1---1---1--------|-----3------4-----1|---1---1---4-----1|---1---1---|
E|------------------|-------------|------------------|------3------------|------------------|-----------|

e|---|---------------|----------------|----------------|-------------------|------------------|----------|
B|---|---------------|----------------|----------------|--1-----1----------|------------------|----------|
G|---|---------------|----------------|3-3-3-3-3-4\3---|---1---------------|------------------|----------|
D|-1-|4-4-4-4-4-4-3-1|-3-3-3-3-3-3-1-1|-------------3-2|----2--2---1-1-1h3-|3-3-3-3-3-1-1-1h3-|3-3-3-3-3-|
A|4--|-1---1---1---1-|--1---1---1---4-|-1---1---1------|-----3------4-----1|---1---1---4-----1|---1---1--|
E|---|---------------|----------------|----------------|------3------------|------------------|----------|

e|------------|
B|------------|
G|------------|
D|1-1-1h3-----|
A|-4-----1----|
E|------------|            
Submit corrections


        New Death Sensation lessons Hard to play? Try these video lessons and learn fast New Death Sensation lessons
        
↑ Back to top | Tablatures and chords for acoustic guitar and electric guitar, ukulele, drums are parodies/interpretations of the original songs. You may use it for private study, scholarship, research or language learning purposes only