» » »

Acid Bath - Dr. Seuss Is Dead Tabs

Artists:  A B C D E F G H I J K L M N O P Q R S T U V W X Y Z # 

Dr. Seuss Is Dead Tabs

(ver. 2) Click to play this song!
Acid Bath
 Rating:
4/5 (4 votes)

 Dr. Seuss Is Dead lessons Tabs too difficult? Try these video lessons and learn fast
 
                "Dr. Seuss is Dead" by Acid Bath

This tab is MY INTERPERTATION of the song and created as accurate
as possible. I did this for educational & entertainment purposes.
I couldn't find any good tabs for this song on the net, so I
decided to type one out. I do not make tabs on a regular basis,
so please forgive any errors or mistakes. I did the best I could.
This tab is the most accurate you'll find. If you see any errors
the * to i]. Also feel free to distrube the tab on any site as
long as it is for educational purposes and NOT FOR SALE. - John H

------------------------------------------------------------------

Key for this tab:
() - hammer on notes and/or optional notes
 ~ - let ring
pm - palm muted notes [under all notes played pm] the hyphen means
     keep it pmed until there are no more hyphens
 m - play the notes then mute the strings
 p - pull off

Tuning B flat: Bf-Ef-Af-Df-Gf-Bf or A#-D#-G#-C#-F#-A#

------------------------------------------------------------------

Introduction:
This part is tricky and requires a lot of practice to get it to
sound right

           harmonic       reverb etc.
A#|----------------------(13)~~-----------|
F#|---------------(5)~~-------------------|
C#|----------(5)--------------------------|
G#|----------(5)--------------------------|
D#|-(0)-----------------------------------|
A#|-(0)-----------------------------------|

Bass comes in...
"Dr. Seuss...is...deaddddd"...
---------------------------------------|
---------------------------------------|
---------------------------------------|
---------------------------------------|
---------------------------------------|
-3-2---2----2~-------------------------|
-1-0---0----0~-------------------------|
 pm-----

-----------------------|         --------|
-----------------------|         --------|
-----------------------|         --------|
-----------------------|         --------|
-2---4-5--2~~~~--------|         -2--4-5-|
-0---2-3--0~~~~--------| x3 then -0--2-3-|
    pm--  


-----------------------|         ----|
-----------------------|         ----|
-----------------------|         ----|
-----------------------|         ----|
5/6-66-5/6-66--7--10-9-|         -2~-|
3/4-44-3/4-44--5---8-7-| x2 then -0~-|
    pm     pm
---------------------------|
---------------------------|
---------------------------|
---------------------------|
-2---4-5--2~~~~------------|
-0---2-3--0~~~~------------|
     pm-  
---------------------------|
---------------------------|
---------------------------|
---------------------------|
-2---4-5--2--3-2---2----2~-|
-0---2-3--0--1-0---0----0~-|
     pm-        m   m
---------------------------|         -------------|
---------------------------|         -------------|
---------------------------|         -------------|
---------------------------|         -------------|
-9----7------------/(14)---|         -9------7----|
-7-7--5-5--2~--------------|         -7-7p---5-55-|
---5----3--0~--0-0-/12-----| x3 then ---5p-----33-|
               pm-                      pm m   pm

----------------------------|
----------------------------|
----------------------------|
-----------------(9)--(7)---|
-3/2-22--3/2-22---7(7)-5(5)-| x4 then play a 
-1/0-00--1/0-00-----5----3--| little faster x4
     pm      pm

----------------------------------|
----------------------------------|
----------------------------------|
-----------------(99)----(77)-----|
-3/2-22--3/2-22---77-(77)-55-(55)-| x4 then play a 
-1/0-00--1/0-00-------55------33--| little faster x4
                 pm--------------

"It's too f**kin loud"
----------------------------------|         -----|
----------------------------------|         -----|
----------------------------------|         -----|
----------------------------------|         -----|
-3/2-22--3/2-22---7777----5555----|         -2~--|
-1/0-00--1/0-00-------5555----3333| x4 then -0~--|
                 pm---------------

-----------------------|         --------|
-----------------------|         --------|
-----------------------|         --------|
-----------------------|         --------|
-2---4-5--2~~~~--------|         -2--4-5-|
-0---2-3--0~~~~--------| x3 then -0--2-3-|
    pm--                             pm-

------------------------------|          -----|
------------------------------|          -----|
------------------------------|          -----|
------------------------------|          -----|
(/)6-6-6-6-6-6-6-6--7----10-9-|          -2~--|
(/)4-4-4-4-4-4-4-4--5-----8-7-| x2  then -0~--|
                          pm--

-----------------------|--------|
-----------------------|--------|
-----------------------|--------|
-----------------------|--------|
-2---4-5--2~~~~--------|-2--4-5-|
-0---2-3--0~~~~--------|-0--2-3-|
    pm--                    pm-

"dr. seuss...is...deaddddd"...
------------------|
------------------|
------------------|
------------------|
------------------|
-3-2---2----2~----|
-1-0---0----0~----|
 pm-----

---------------------------|        ------------|
---------------------------|        ------------|
---------------------------|        ------------|
---------------------------|        ------------|
-9----7------------/(14)---|        -9-----7----|
-7-7--5-5--2~--------------|        -7-7p--5-55-|
---5----3--0~--0-0-/12-----|x3 then ---5p----33-|
               pm-                     pm    pm

----------------------------|
----------------------------|
----------------------------|
-----------------(9)--(7)---|
-3/2-22--3/2-22---7(7)-5(5)-| x4 then play a 
-1/0-00--1/0-00-----5----3--| little faster x4
     pm      pm

----------------------------------|
----------------------------------|
----------------------------------|
----------------------------------|
-3/2-22--3/2-22---7777----5555----|
-1/0-00--1/0-00-------5555----3333| x8
     pm      pm  pm--------------

------------------------------------|
------------------------------------|
------------------------------------|
------------------------------------|
-5/2-22--8/2-22--4/2-22----88888888-| x1 slowly then
-3/0-00--6/0-00--2/0-00----66666666-| speed up x19
     pm      pm      pm    pm------
            
Submit corrections


        Dr. Seuss Is Dead lessons Hard to play? Try these video lessons and learn fast Dr. Seuss Is Dead lessons
        
↑ Back to top | Tablatures and chords for acoustic guitar and electric guitar, ukulele, drums are parodies/interpretations of the original songs. You may use it for private study, scholarship, research or language learning purposes only