Home » A » Ace Of Base »

Ace Of Base - Sign Tabs

Artists:  A B C D E F G H I J K L M N O P Q R S T U V W X Y Z # 

Sign Tabs

(ver. 2) Click to play this song!
Ace Of Base
Final Chorus and the Outro are sung an octave higher, but the chords stay the same octave as all before them.
Nice classic Swedish hit.

Intro: e|-3-1-3-16-3-1h3-|
       B|----------------|
       G|----------------| X4
       D|----------------|
       A|----------------|
       E|----------------|

          Whoah ah oh oh, yeah!

       e|-3-1-3-16-3-1h3-|
       B|----------------|
       G|----------------| X3
       D|----------------|
       A|----------------|
       E|----------------|

       e|-3-13-13-11p10-8-8-8-8-(10)-(10)-(10)-(10)-|
       B|-------------------------------------------|
       G|-------------------------------------------|
       D|-------------------------------------------|
       A|-------------------------------------------|
       E|-------------------------------------------|

Verse: e|---------------------------------|
       B|---------------------------------|
       G|-----------------5-5-x55-7-7-x77-| X3
       D|-5-5-x55-2-2-x22-5-5-x55-7-7-x77-|
       A|-5-5-x55-2-2-x22-3-3-x33-5-5-x55-|
       E|-3-3-x33-0-0-x00-----------------|

          I, I gotta new life. You would hardly recognize me I'm so glad

          How could a person like me care for you?

         (Why?)Why do I bother when you're not the one for me?

       e|---------------------------------|
       B|---------------------------------|
       G|---------5-5-x55-7-7-x77-7-7-x77-|
       D|-5-5-x55-5-5-x55-7-7-x77-7-7-x77-|
       A|-5-5-x55-3-3-x33-5-5-x55-5-5-x55-|
       E|-3-3-x33-------------------------|

          Ooooo, is enough, enough?

Chorus: e|---------------------------------|
        B|---------------------------------|
        G|-----------------5-5-x55-7-7-x77-| X4
        D|-5-5-x55-2-2-x22-5-5-x55-7-7-x77-|
        A|-5-5-x55-2-2-x22-3-3-x33-5-5-x55-|
        E|-3-3-x33-0-0-x00-----------------|

           I saw the sign and it opened up my eyes. I saw the sign

           Life is demanding without understanding

           I saw the sign and it opened up my eyes. I saw the sign

           No one's gonna drag you up to get into the light where you belong...

       e|-------|
       B|-------|
       G|-5~-7~-|
       D|-5~-7~-|
       A|-3~-5~-|
       E|-------|

             But where do you belong?

Pre-Verse: e|-3-1-3-16-3-1h3-|
           B|----------------|
           G|----------------| X3
           D|----------------|
           A|----------------|
           E|----------------|

           e|-3-13-13-11p10~-|
           B|----------------|
           G|----------------|
           D|----------------|
           A|----------------|
           E|----------------| 

Verse: e|---------------------------------|
       B|---------------------------------|
       G|-----------------5-5-x55-7-7-x77-| X3
       D|-5-5-x55-2-2-x22-5-5-x55-7-7-x77-|
       A|-5-5-x55-2-2-x22-3-3-x33-5-5-x55-|
       E|-3-3-x33-0-0-x00-----------------|

          Under the clean moon for so many years I've wondered who you are.

          How could a person like you bring me joy?

          Under the pale moon

          Where I see a lot of stars
       
       e|---------------------------------|
       B|---------------------------------|
       G|---------5-5-x55-7-7-x77-7-7-x77-|
       D|-5-5-x55-5-5-x55-7-7-x77-7-7-x77-|
       A|-5-5-x55-3-3-x33-5-5-x55-5-5-x55-|
       E|-3-3-x33-------------------------|

          Ooooo, is enough, enough?

Chorus: e|---------------------------------|
        B|---------------------------------|
        G|-----------------5-5-x55-7-7-x77-| X4
        D|-5-5-x55-2-2-x22-5-5-x55-7-7-x77-|
        A|-5-5-x55-2-2-x22-3-3-x33-5-5-x55-|
        E|-3-3-x33-0-0-x00-----------------|

           I saw the sign and it opened up my eyes. I saw the sign

           Life is demanding without understanding

           I saw the sign and it opened up my eyes. I saw the sign

           No one's gonna drag you up to get into the light where you belong...

       e|-------|
       B|-------|
       G|-5~-7~-|
       D|-5~-7~-|
       A|-3~-5~-|
       E|-------|

             But where do you belong?

Solo: e|-3-1-3-16-3-1h3-|
      B|----------------|
      G|----------------| X8
      D|----------------|
      A|----------------|
      E|----------------|

        Oh! Oh, oh, oh

Chorus: e|---------------------------------|
        B|---------------------------------|
        G|-----------------5-5-x55-7-7-x77-| X4
        D|-5-5-x55-2-2-x22-5-5-x55-7-7-x77-|
        A|-5-5-x55-2-2-x22-3-3-x33-5-5-x55-|
        E|-3-3-x33-0-0-x00-----------------|

           I saw the sign and it opened up my mind!

           And I am happy now living without you. I've left you, oh-oh-Oh!

           I saw the sign and it opened up my eyes I saw the sign

           No one's gonna drag you up to get into the light where you belong

Outro: e|---------------------------------|
       B|---------------------------------|
       G|-----------------5-5-x55-7-7-x77-| X4
       D|-5-5-x55-2-2-x22-5-5-x55-7-7-x77-|
       A|-5-5-x55-2-2-x22-3-3-x33-5-5-x55-|
       E|-3-3-x33-0-0-x00-----------------|

          (I saw the sign - I saw the si-i-ig-i-ign) I saw the sign!

          (I saw the sign - I saw the si-i-ig-i-ign)

          (I saw the sign - I saw the si-i-ig-i-ign) I saw the sign!

          And it opened up my eyes, I saw the sign! (sign, sign, sign)            
Submit corrections

↑ Back to top | Tablatures and chords for acoustic guitar and electric guitar, ukulele, drums are parodies/interpretations of the original songs. You may use it for private study, scholarship, research or language learning purposes only