» » »

Ac/Dc - Shook Me All Night Long Tabs

Artists:  A B C D E F G H I J K L M N O P Q R S T U V W X Y Z # 

Shook Me All Night Long Tabs

(ver. 2) Click to play this song!
Ac/Dc
 Rating:
4/5 (4 votes)

 Shook Me All Night Long lessons Tabs too difficult? Try these video lessons and learn fast
 
                ARTIST-AC/DC
SONG-YOU SHOOK ME ALL NIGHT LONG

INTRO
E|--3----5------3---3------------------------------------|
B|--3----3------3-----3-------3------------------3-------|
G|--0----0--------------------2------2^-2----------------|
D|------------------------0---0------3--0---3/4------3p0-|
A|-------------------------------------------------------|
E|-------------------------------------------------------|

E|--3--------3---3----3---3-----3-2--------------2----|
B|--3--------3---5----3-----3--------3-----------3----|
G|--0--------0---0-------------------------------2----|
D|--0----0--------------------------------0------0----|
A|-------0--------------------------------------------|
E|----------------------------------------------------|

VERSE
E|--3-----0-----0--------------------------------|
B|--3-----1-----1----3-----1----3------3---------|
G|--0-----0-----0----0-----0----0------2---------|
D|--0-----2-----2----0-----2----0------0---------|
A|--X-----3-----3----------3---------------------|
E|--3----------------3----------3----------------|

E|--3-----3------2------3-----2--------3----------|
B|--3-----3------3------3-----3--------3----------|
G|--0-----0------2------0-----2--------0----------|
D|--0-----0------0------0-----0--------0----------|
A|--X-----X----------------------------X----------|
E|--3-----3-------------3--------------3----------|

CHORUS
E|--3---3-3-3-------------------------------------------------------------------|
B|--3---3-3-3---------------3--------3-------3----3-3---------------3--------3--|
G|--0---0-0-0-------------0--------0---------2----2-2-------------0--------0----|
D|--0---0-0-0------------------------------0-0----0-0---------------------------|
A|--X---X-X-X-----0-2--3--------2-----------------0-0-----0-2--3-------2--------|
E|--3---3-3-3-------------------------------------------------------------------|


SOLO
E|--------3-------------------------------------|
B|----------3--6--------------------------------|
G|--5^-------------5^p3-------------------------|
D|-----------------------5------5--5---3--------|
A|----------------------------5-----------5--3--|
E|----------------------------------------------|

E|----------------------------|-----------------------------------|
B|-----------3----------------|-----------------6--------8-8------|
G|-----------3----------------|------3-----5/7------7/9-----------|
D|-----------------5----------|--5--------------------------------|
A|----------------------------|-----------------------------------|
E|--6--3----------------------|-----------------------------------|

E|----------10-----------|--------------------------|
B|---8--10^----10^10p8---|--8--11^---10^-8-----8----|
G|-9---------------------|-------------------9------|
D|-----------------------|--------------------------|
A|-----------------------|--------------------------|
E|-----------------------|--------------------------|

E|---------------15--------------------------------------|
B|--18^---18^-------15-18-----------------17-15----------|
G|-------------------------17^(17)15------17-15----------|
D|------------------------------------17-----------------|
A|-------------------------------------------------------|
E|-------------------------------------------------------|

E|-------------------------------------------------18^-------|
B|------18------18---------------17-15-17-15-----------------|
G|--17^-----17^-----17^17p15-----17-15-17-15---0-------------|
D|---------------------------17------------------------------|
A|-----------------------------------------------------------|
E|-----------------------------------------------------------|

       1/2b    1/2b  
E|--18^-------17^----17p15------------------|
B|------------------------------------------|
G|------------------------------------------|
D|------------------------------------------|
A|------------------------------------------|
E|------------------------------------------|

E|--17----15------------------------------------15-17---17^15----(15)-|
B|-----17----18^---15-18----------------15-17-------------------------|
G|-------------------------17^(17)--15--------------------------------|
D|--------------------------------------------------------------------|
A|--------------------------------------------------------------------|
E|--------------------------------------------------------------------|


Thats all there is to this song!
            
Submit corrections


        Shook Me All Night Long lessons Hard to play? Try these video lessons and learn fast Shook Me All Night Long lessons
        
↑ Back to top | Tablatures and chords for acoustic guitar and electric guitar, ukulele, drums are parodies/interpretations of the original songs. You may use it for private study, scholarship, research or language learning purposes only