» » »

Acceptance - Take You Away Tabs

Artists:  A B C D E F G H I J K L M N O P Q R S T U V W X Y Z # 

Take You Away Tabs

(ver. 1) Click to play this song!
Acceptance
 Rating:
1.7/5 (30 votes)

 Take You Away  lessons Tabs too difficult? Try these video lessons and learn fast
 
                
Intro

No real Guitar part but the chord progressions are:
E  F# G#m  B

Synth Part
e|--------------------------------------------------------|
B|--------------------------------------------------------|
G|-----------------------9-8------------------------------|
D|---9-6~--8-6~--8-9-8-9-----6----------------------------|
A|--------------------------------------------------------|
D|--------------------------------------------------------|
"come a long long way..."

Chorus

     E     F#    G#m   B 
e|--------------------------------------------------------|
B|--------------------------------------------------------|
G|--------------------------------------------------------|
D|---2222--4444--6666--9999---2222--4444--6666--9999------|
A|---2222--4444--6666--9999---2222--4444--6666--9999------|
D|---2222--4444--6666--9999---2222--4444--6666--9999------|
"say that we're heroes..."

Verse

     E     F#    G#m
e|-----------------------------|
B|-----------------------------|
G|-----------------------------|
D|---2222--4444--6666-6666-----|
A|---2222--4444--6666-6666-----|
D|---2222--4444--6666-6666-----|
*Palm Muted*
"we live, we love..."

Pre Chorus

e|--------------------------------------------------------|
B|--------------------------------------------------------|
G|--------------------------------------------------------|
D|---22-2--44-4--66-6--99-9---22-2--44-4--66-6--99-9------|
A|---22-2--44-4--66-6--99-9---22-2--44-4--66-6--99-9------|
D|---22-2--44-4--66-6--99-9---22-2--44-4--66-6--99-9------|
"we come a long we're thinking we're lost..."

Chorus

e|--------------------------------------------------------|
B|--------------------------------------------------------|
G|--------------------------------------------------------|
D|---2222--4444--6666--9999---2222--4444--6666--9999------|
A|---2222--4444--6666--9999---2222--4444--6666--9999------|
D|---2222--4444--6666--9999---2222--4444--6666--9999------|
"say that we're heroes..."

Then this lead riff comes in during the second rotation of the second Chorus
Rhythm chords the same...

e|-------9-----7~-----9-----7p6---|
B|--------------------------------|
G|---8h9---8h9----8h9---8h9-------|
D|--------------------------------|
A|--------------------------------|
D|--------------------------------|

Lead fill after that Chorus:

e|---7~---7p6/2~-22/----------|
B|----------------------------|
G|----------------------------|
D|----------------------------|
A|----------------------------|
D|----------------------------|

Bridge

e|----------------------------|
B|----------------------------|
G|----------------------------|
D|---2~-22--4-6~-6--99--------|
A|---2~-22--4-6~-6--99--------|
D|---2~-22--4-6~-6--99--------|
"in the end we believe..."

Chorus till end.
e|--------------------------------------------------------|
B|--------------------------------------------------------|
G|--------------------------------------------------------|
D|---2222--4444--6666--9999---2222--4444--6666--9999------|
A|---2222--4444--6666--9999---2222--4444--6666--9999------|
D|---2222--4444--6666--9999---2222--4444--6666--9999------|

Lead in Outro
e|-------9-----7~-----9-----7p6---------------|
B|--------------------------------------------|
G|---8h9---8h9----8h9---8h9-------------------|
D|--------------------------------------------|
A|--------------------------------------------|
D|--------------------------------------------|

e|---7~-------------6h7-6h7-6h7-9h11----------|
B|----------9~--------------------------------|
G|--------------------------------------------|
D|--------------------------------------------|
A|--------------------------------------------|
D|--------------------------------------------|            
Submit corrections


        Take You Away  lessons Hard to play? Try these video lessons and learn fast Take You Away  lessons
        
↑ Back to top | Tablatures and chords for acoustic guitar and electric guitar, ukulele, drums are parodies/interpretations of the original songs. You may use it for private study, scholarship, research or language learning purposes only