» » »

Acceptance - Diagram Of A Simple Man Tabs

Artists:  A B C D E F G H I J K L M N O P Q R S T U V W X Y Z # 

Diagram Of A Simple Man Tabs

(ver. 1) Click to play this song!
Acceptance
 Rating:
4.4/5 (11 votes)

 Diagram Of A Simple Man  lessons Tabs too difficult? Try these video lessons and learn fast
 
                [Intro]
(Guitar 1)
eb|----------------------------------------------------------------------------12--12----------|
Bb|--------12---------------------------12---12----------------12---12-------------------------|
Gb|--11-13---13~-13-13--11h13-p11\9~--9~---9~---/13p11-13p11-9~---9~---13p11-13--13--13-11-9\--|
Db|--------------------------------------------------------------------------------------------|
Ab|--------------------------------------------------------------------------------------------|
Db|--------------------------------------------------------------------------------------------|

(Guitar 2)
eb|-------------------------------------------------------------------------------|
Bb|-------------------------------------------------------------------------------|
Gb|-------------------------------------------------------------------------------|
Db|--2-2-2-2-2-2-2-2--2-2-2-2-2-2-2-2--11-11-11-11-11-11-11-11--2-2-2-2-2-2-2-2~--|
Ab|--2-2-2-2-2-2-2-2--2-2-2-2-2-2-2-2--11-11-11-11-11-11-11-11--2-2-2-2-2-2-2-2~--|
Db|--2-2-2-2-2-2-2-2--2-2-2-2-2-2-2-2--11-11-11-11-11-11-11-11--2-2-2-2-2-2-2-2~--|

(Guitar 3)
eb|--------------------------------------------------------------------------|
Bb|--------------------------------------------------------------------------|
Gb|--9-9-9-9-9-9-9-9--9-9-9-9-9-9/8/6~-6-6-6-6-6-6-6-6--9-9-9-9-9-9-9-9~-----|
Db|--9-9-9-9-9-x-x-x--9-9-9-9-x-x/x/x~-6-6-6-6-6-6-6-6--9-9-9-9-9-9-9-9~-----|
Ab|--7-7-7-7-7-7-7-7--7-7-7-7-7-7/6/4~-4-4-4-4-4-4-4-4--7-7-7-7-7-7-7-7~-----|
Db|--------------------------------------------------------------------------|

[Verse]
(in the first verse only Guitar 1 plays. It has an acoustic guitar feel to it.)
(Guitar 1)
eb|---------------------------------------------------------------------------|
Bb|---------------------------------------------------------------------------|
Gb|---------------------------------------------------9--9--9-----------------|
Db|----6-9-6---6--6-----6---6---9-6---6---6---9-6---6--6--6---6---6-----------|
Ab|--9-------7---7--7-9---9---7-----9---9---9-----9-------------9---7---------|
Db|---------------------------------------------------------------------------|

(the second time this is played is when the synth comes in)
eb|---------------------------------------------------------------------------|
Bb|---------------------------------------------------------------------------|
Gb|---------------------------------------------------9--9--9-----------------|
Db|----6-9-6---6--6-----6---6---9-6---6---6---9-6---6--6--6---6---6-----------|
Ab|--9-------7---7--7-9---9---7-----9---9---9-----9-------------9---7---------|
Db|---------------------------------------------------------------------------|

[Chorus]
(Guitar 1)
(no lead during the chorus)
eb|---------------------------------------------------------------------------|
Bb|---------------------------------------------------------------------------|
Gb|---------------------------------------------------------------------------|
Db|---------------------------------------------------------------------------|
Ab|---------------------------------------------------------------------------|
Db|---------------------------------------------------------------------------|

(Guitar 2)
eb|---------------------------------------------|---------------------------------------------------------|
Bb|---------------------------------------------|---------------------------------------------------------|
Gb|-11-11-11-11-13-13-13-13-16-16-16-16-9-9-9-9-|-9-9-9-9-11-11-11-11-13-13-13-13-16-16-16-16-9-9-9-9-11~-|
Db|--9--9--9--9-11-11-11-11-14-14-14-14-7-7-7-7-|-7-7-7-7--9--9--9--9-11-11-11-11-14-14-14-14-7-7-7-7--9~-|
Ab|--9--9--9--9-11-11-11-11-14-14-14-14-7-7-7-7-|-7-7-7-7--9--9--9--9-11-11-11-11-14-14-14-14-7-7-7-7--9~-|
Db|--9--9--9--9-11-11-11-11-14-14-14-14-7-7-7-7-|-7-7-7-7--9--9--9--9-11-11-11-11-14-14-14-14-7-7-7-7--9~-|

(Guitar 3)
eb|------------------------------------|---------------------------------------------------|
Bb|------------------------------------|---------------------------------------------------|
Gb|--4-4-4-4--6-6-6-6----------2-2-2-2-|-2-2-2-2--4-4-4-4--6-6-6-6-----------2-2-2-2--4~---|
Db|--4-4-4-4--6-6-6-6--2-2-2-2-2-2-2-2-|-2-2-2-2--4-4-4-4--6-6-6-6--2-2-2-2--2-2-2-2--4~---|
Ab|--2-2-2-2--4-4-4-4--2-2-2-2-0-0-0-0-|-0-0-0-0--2-2-2-2--4-4-4-4--2-2-2-2--0-0-0-0--2~---|
Db|--------------------2-2-2-2---------|----------------------------2-2-2-2----------------|

[Instrumental]
(Guitar 1)
eb|----------------------------------------------------------------------------12--12----------|
Bb|--------12---------------------------12---12----------------12---12-------------------------|
Gb|--11-13---13~-13-13--11h13-p11\9~--9~---9~---/13p11-13p11-9~---9~---13p11-13--13--13-11-9\--|
Db|--------------------------------------------------------------------------------------------|
Ab|--------------------------------------------------------------------------------------------|
Db|--------------------------------------------------------------------------------------------|

(Guitar 2)
eb|-------------------------------------------------------------------------------|
Bb|-------------------------------------------------------------------------------|
Gb|-------------------------------------------------------------------------------|
Db|--2-2-2-2-2-2-2-2--2-2-2-2-2-2-2-2--11-11-11-11-11-11-11-11--2-2-2-2-2-2-2-2~--|
Ab|--2-2-2-2-2-2-2-2--2-2-2-2-2-2-2-2--11-11-11-11-11-11-11-11--2-2-2-2-2-2-2-2~--|
Db|--2-2-2-2-2-2-2-2--2-2-2-2-2-2-2-2--11-11-11-11-11-11-11-11--2-2-2-2-2-2-2-2~--|

(Guitar 3)
eb|--------------------------------------------------------------------------|
Bb|--------------------------------------------------------------------------|
Gb|--9-9-9-9-9-9-9-9--9-9-9-9-9-9/8/6~-6-6-6-6-6-6-6-6--9-9-9-9-9-9-9-9~-----|
Db|--9-9-9-9-9-x-x-x--9-9-9-9-x-x/x/x~-6-6-6-6-6-6-6-6--9-9-9-9-9-9-9-9~-----|
Ab|--7-7-7-7-7-7-7-7--7-7-7-7-7-7/6/4~-4-4-4-4-4-4-4-4--7-7-7-7-7-7-7-7~-----|
Db|--------------------------------------------------------------------------|

[Verse 2]
(same as the first verse)
(Guitar 1)
eb|---------------------------------------------------------------------------|
Bb|---------------------------------------------------------------------------|
Gb|---------------------------------------------------9--9--9-----------------|
Db|----6-9-6---6--6-----6---6---9-6---6---6---9-6---6--6--6---6---6-----------|
Ab|--9-------7---7--7-9---9---7-----9---9---9-----9-------------9---7---------|
Db|---------------------------------------------------------------------------|

(the second time this is played is when the synth comes in)
eb|---------------------------------------------------------------------------|
Bb|---------------------------------------------------------------------------|
Gb|---------------------------------------------------9--9--9-----------------|
Db|----6-9-6---6--6-----6---6---9-6---6---6---9-6---6--6--6---6---6-----------|
Ab|--9-------7---7--7-9---9---7-----9---9---9-----9-------------9---7---------|
Db|---------------------------------------------------------------------------|

(Guitar 2)
(there's also no other Guitar played in this Verse but you can Tremelo the root notes to match the Bass)
eb|---------------------------------------------------------------------------|
Bb|---------------------------------------------------------------------------|
Gb|---------------------------------------------------------------------------|
Db|---------------------------------------------------------------------------|
Ab|---------------------------------------------------------------------------|
Db|--2-2-2-2-2-2-2-2-2-2-2-2-2-2-2-2/11-11-11-11p9-9-9-9-2-2-2-2-2-2-2-2------|

[Chorus]
(Guitar 1)
(no lead during the chorus)
eb|---------------------------------------------------------------------------|
Bb|---------------------------------------------------------------------------|
Gb|---------------------------------------------------------------------------|
Db|---------------------------------------------------------------------------|
Ab|---------------------------------------------------------------------------|
Db|---------------------------------------------------------------------------|

(Guitar 2)
eb|---------------------------------------------|---------------------------------------------------------|
Bb|---------------------------------------------|---------------------------------------------------------|
Gb|-11-11-11-11-13-13-13-13-16-16-16-16-9-9-9-9-|-9-9-9-9-11-11-11-11-13-13-13-13-16-16-16-16-9-9-9-9-11~-|
Db|--9--9--9--9-11-11-11-11-14-14-14-14-7-7-7-7-|-7-7-7-7--9--9--9--9-11-11-11-11-14-14-14-14-7-7-7-7--9~-|
Ab|--9--9--9--9-11-11-11-11-14-14-14-14-7-7-7-7-|-7-7-7-7--9--9--9--9-11-11-11-11-14-14-14-14-7-7-7-7--9~-|
Db|--9--9--9--9-11-11-11-11-14-14-14-14-7-7-7-7-|-7-7-7-7--9--9--9--9-11-11-11-11-14-14-14-14-7-7-7-7--9~-|

(Guitar 3)
eb|------------------------------------|---------------------------------------------------|
Bb|------------------------------------|---------------------------------------------------|
Gb|--4-4-4-4--6-6-6-6----------2-2-2-2-|-2-2-2-2--4-4-4-4--6-6-6-6-----------2-2-2-2--4~---|
Db|--4-4-4-4--6-6-6-6--2-2-2-2-2-2-2-2-|-2-2-2-2--4-4-4-4--6-6-6-6--2-2-2-2--2-2-2-2--4~---|
Ab|--2-2-2-2--4-4-4-4--2-2-2-2-0-0-0-0-|-0-0-0-0--2-2-2-2--4-4-4-4--2-2-2-2--0-0-0-0--2~---|
Db|--------------------2-2-2-2---------|----------------------------2-2-2-2----------------|

[Instrumental/Solo]
(Guitar 1)
eb|----------------------------------------------------------------------------12--12----------|
Bb|--------12---------------------------12---12----------------12---12-------------------------|
Gb|--11-13---13~-13-13--11h13-p11\9~--9~---9~---/13p11-13p11-9~---9~---13p11-13--13--13-11-9\--|
Db|--------------------------------------------------------------------------------------------|
Ab|--------------------------------------------------------------------------------------------|
Db|--------------------------------------------------------------------------------------------|

(Guitar 2)
eb|-------------------------------------------------------------------------------|
Bb|-------------------------------------------------------------------------------|
Gb|-------------------------------------------------------------------------------|
Db|--2-2-2-2-2-2-2-2--2-2-2-2-2-2-2-2--11-11-11-11-11-11-11-11--2-2-2-2-2-2-2-2~--|
Ab|--2-2-2-2-2-2-2-2--2-2-2-2-2-2-2-2--11-11-11-11-11-11-11-11--2-2-2-2-2-2-2-2~--|
Db|--2-2-2-2-2-2-2-2--2-2-2-2-2-2-2-2--11-11-11-11-11-11-11-11--2-2-2-2-2-2-2-2~--|

(Guitar 3)
eb|--------------------------------------------------------------------------|
Bb|--------------------------------------------------------------------------|
Gb|--9-9-9-9-9-9-9-9--9-9-9-9-9-9/8/6~-6-6-6-6-6-6-6-6--9-9-9-9-9-9-9-9~-----|
Db|--9-9-9-9-9-x-x-x--9-9-9-9-x-x/x/x~-6-6-6-6-6-6-6-6--9-9-9-9-9-9-9-9~-----|
Ab|--7-7-7-7-7-7-7-7--7-7-7-7-7-7/6/4~-4-4-4-4-4-4-4-4--7-7-7-7-7-7-7-7~-----|
Db|--------------------------------------------------------------------------|

(Guitar 1)
eb|--------------------------------------------------|------------------------------------------------|
Bb|--------------------------------------------------|------------------------------------------------|
Gb|--11-11-11-11-11-11-11-11-11-11-11-11-/4--9-9-9-9-|-/16-16-16-16-16-16-16--/14-14-14-9--9--9--9----|
Db|--------------------------------------------------|-----------------------------------99-99-99-99--|
Ab|--------------------------------------------------|------------------------------------------------|
Db|--------------------------------------------------|------------------------------------------------|
                                                                                       PM.............

(Guitar 2)
eb|-----------------------------------------------|---------------------------------------|
Bb|-----------------------------------------------|---------------------------------------|
Gb|-----------------------------------------------|---------------------------------------|
Db|--11-11-11-11-9-9-9-9-7-7-7-7--2-2-2-2-2-2-2-2-|-11-11-11-11--9-9-9-9-2-2-2-2-2-2-2-2--|
Ab|--11-11-11-11-9-9-9-9-7-7-7-7--2-2-2-2-2-2-2-2-|-11-11-11-11--9-9-9-9-2-2-2-2-2-2-2-2--|
Db|--11-11-11-11-9-9-9-9-7-7-7-7--2-2-2-2-2-2-2-2-|-11-11-11-11--9-9-9-9-2-2-2-2-2-2-2-2--|

(Guitar 3)
eb|---------------------------------------------|------------------------------------|
Bb|---------------------------------------------|------------------------------------|
Gb|--6-6-6-6--4-4-4-4--2-2-2-2------------------|-6-6-6-6--4-4-4-4-------------------|
Db|--6-6-6-6--4-4-4-4--2-2-2-2--2-2-2-2-2-2-2-2-|-6-6-6-6--4-4-4-4--2-2-2-2-2-2-2-2--|
Ab|--4-4-4-4--2-2-2-2--0-0-0-0--2-2-2-2-2-2-2-2-|-4-4-4-4--2-2-2-2--2-2-2-2-2-2-2-2--|
Db|-----------------------------2-2-2-2-2-2-2-2-|-------------------2-2-2-2-2-2-2-2--|

(Guitar 1)
eb|----------------------------------------------------------------12-12-12-12-12-12-12-12----------------|
Bb|-----------12-12-12-12---------12-12-12-12--10-10-10-10----------9--9--9--9--9--9--9--9----------------|
Gb|--13-13-13------------13-13-13--------------------------9-9-9-9--9--9--9--9--9--9--9--9-8-9----8h9p8---|
Db|--------------------------------------------------------------------------------------------9~------9~-|
Ab|-------------------------------------------------------------------------------------------------------|
Db|-------------------------------------------------------------------------------------------------------|

eb|-------------------------|
Bb|-------------------------|
Gb|-------------------------|
Db|-------9------9----------|
Ab|--9h11---9h11---11~------|
Db|-------------------------|
(3:00) right before the bridge.

(Guitar 2)
eb|-----------------------------------------------|---------------------------------------|
Bb|-----------------------------------------------|---------------------------------------|
Gb|-----------------------------------------------|---------------------------------------|
Db|--11-11-11-11-9-9-9-9-7-7-7-7--2-2-2-2-2-2-2-2-|-11-11-11-11--9-9-9-9-2-2-2-2-2-2-2-2--|
Ab|--11-11-11-11-9-9-9-9-7-7-7-7--2-2-2-2-2-2-2-2-|-11-11-11-11--9-9-9-9-2-2-2-2-2-2-2-2--|
Db|--11-11-11-11-9-9-9-9-7-7-7-7--2-2-2-2-2-2-2-2-|-11-11-11-11--9-9-9-9-2-2-2-2-2-2-2-2--|

(Guitar 3)
eb|---------------------------------------------|------------------------------------|
Bb|---------------------------------------------|------------------------------------|
Gb|--6-6-6-6--4-4-4-4--2-2-2-2------------------|-6-6-6-6--4-4-4-4-------------------|
Db|--6-6-6-6--4-4-4-4--2-2-2-2--2-2-2-2-2-2-2-2-|-6-6-6-6--4-4-4-4--2-2-2-2-2-2-2-2--|
Ab|--4-4-4-4--2-2-2-2--0-0-0-0--2-2-2-2-2-2-2-2-|-4-4-4-4--2-2-2-2--2-2-2-2-2-2-2-2--|
Db|-----------------------------2-2-2-2-2-2-2-2-|-------------------2-2-2-2-2-2-2-2--|

(No guitar during the Bridge)

[Chorus]
(Guitar 1)
(no lead during the chorus)
eb|---------------------------------------------------------------------------|
Bb|---------------------------------------------------------------------------|
Gb|---------------------------------------------------------------------------|
Db|---------------------------------------------------------------------------|
Ab|---------------------------------------------------------------------------|
Db|---------------------------------------------------------------------------|

(Guitar 2)
eb|--------------------------------------------|----------------------------------------------------------|
Bb|--------------------------------------------|----------------------------------------------------------|
Gb|-11-11-11-11-13-13-13-13-16-16-16-16-9-9-9-9-|-9-9-9-9-11-11-11-11-13-13-13-13-16-16-16-16-9-9-9-9-11~-|
Db|--9--9--9--9-11-11-11-11-14-14-14-14-7-7-7-7-|-7-7-7-7--9--9--9--9-11-11-11-11-14-14-14-14-7-7-7-7--9~-|
Ab|--9--9--9--9-11-11-11-11-14-14-14-14-7-7-7-7-|-7-7-7-7--9--9--9--9-11-11-11-11-14-14-14-14-7-7-7-7--9~-|
Db|--9--9--9--9-11-11-11-11-14-14-14-14-7-7-7-7-|-7-7-7-7--9--9--9--9-11-11-11-11-14-14-14-14-7-7-7-7--9~-|

(Guitar 3)
eb|------------------------------------|---------------------------------------------------|
Bb|------------------------------------|---------------------------------------------------|
Gb|--4-4-4-4--6-6-6-6----------2-2-2-2-|-2-2-2-2--4-4-4-4--6-6-6-6-----------2-2-2-2--4~---|
Db|--4-4-4-4--6-6-6-6--2-2-2-2-2-2-2-2-|-2-2-2-2--4-4-4-4--6-6-6-6--2-2-2-2--2-2-2-2--4~---|
Ab|--2-2-2-2--4-4-4-4--2-2-2-2-0-0-0-0-|-0-0-0-0--2-2-2-2--4-4-4-4--2-2-2-2--0-0-0-0--2~---|
Db|--------------------2-2-2-2---------|----------------------------2-2-2-2----------------|

[Outro]
(Guitar 1)
eb|----------------------------------------------------------------------------12--12----------|
Bb|--------12---------------------------12---12----------------12---12-------------------------|
Gb|--11-13---13~-13-13--11h13-p11\9~--9~---9~---/13p11-13p11-9~---9~---13p11-13--13--13-11-9\--|
Db|--------------------------------------------------------------------------------------------|
Ab|--------------------------------------------------------------------------------------------|
Db|--------------------------------------------------------------------------------------------|

(Guitar 2)
eb|-------------------------------------------------------------------------------|
Bb|-------------------------------------------------------------------------------|
Gb|-------------------------------------------------------------------------------|
Db|--2-2-2-2-2-2-2-2--2-2-2-2-2-2-2-2--11-11-11-11-11-11-11-11--2-2-2-2-2-2-2-2~--|
Ab|--2-2-2-2-2-2-2-2--2-2-2-2-2-2-2-2--11-11-11-11-11-11-11-11--2-2-2-2-2-2-2-2~--|
Db|--2-2-2-2-2-2-2-2--2-2-2-2-2-2-2-2--11-11-11-11-11-11-11-11--2-2-2-2-2-2-2-2~--|

(Guitar 3)
eb|--------------------------------------------------------------------------|
Bb|--------------------------------------------------------------------------|
Gb|--9-9-9-9-9-9-9-9--9-9-9-9-9-9/8/6~-6-6-6-6-6-6-6-6--9-9-9-9-9-9-9-9~-----|
Db|--9-9-9-9-9-x-x-x--9-9-9-9-x-x/x/x~-6-6-6-6-6-6-6-6--9-9-9-9-9-9-9-9~-----|
Ab|--7-7-7-7-7-7-7-7--7-7-7-7-7-7/6/4~-4-4-4-4-4-4-4-4--7-7-7-7-7-7-7-7~-----|
Db|--------------------------------------------------------------------------|            
Submit corrections


        Diagram Of A Simple Man  lessons Hard to play? Try these video lessons and learn fast Diagram Of A Simple Man  lessons
        
↑ Back to top | Tablatures and chords for acoustic guitar and electric guitar, ukulele, drums are parodies/interpretations of the original songs. You may use it for private study, scholarship, research or language learning purposes only