» » »

A.C.A.B - Skinhead For Life Tabs

Artists:  A B C D E F G H I J K L M N O P Q R S T U V W X Y Z # 

Skinhead For Life Tabs

(ver. 3) Click to play this song!
A.C.A.B
 Rating:
4/5 (4 votes)


 Skinhead For Life lessons Tabs too difficult? Try these video lessons and learn fast
 
                Have fun...
Standard tuning.

Intro 4x
e|-------------|-------------|-------------|-------------|------------|
B|-------------|-------------|-------------|-------------|------------|
G|-------------|-------------|-------------|-------------|------------|
D|-------------|-------------|----2-----2--|----2-----2~-|------------|
A|----3-----3--|----3-----3~-|--3---3-3----|--3---3-3----|----2-----2-|
E|--5---5-5----|--5---5-5----|-------------|-------------|--3---3-3---|

e|-------------|-------------|----------------------------------------|
B|-------------|-------------|----------------------------------------|
G|-------------|-------------|----------------------------------------|
D|-------------|-------------|----------------------------------------|
A|----2-----2--|----3-----3--|----------------------------------------|
E|--3---3-3----|--5---5-5----|--0-0-1-1-3-3-5-------------------------|
Play this section until you start to sing...

Verse 2x
e|--------------------------------------------------------------------|
B|--------------------------------------------------------------------|
G|--------5~~---------------------------------------------------------|
D|--7~~---5---5~~---7~~-----------------------------------------------|
A|--7~~---3---5~~---7~~-----------------------------------------------|
E|--5~~-------3~~---5~~-----------------------------------------------|
Strum each power chords once.Listen to the song and figure it out on
when to strum each chords.

Pre-Chorus
e|-------------|----------|---------------|-----------|
B|-------------|----------|---------------|-----------|
G|--5-----7----|--5-------|--5-----7------|--5-----9-~|
D|--5--5--7--7-|--5--5--7-|--5--5--7--7---|--5--5--9-~|
A|--3--5--5--7-|--3--5--7-|--3--5--5--7---|--3--3--7-~|
E|-----3-----5-|-----3--5-|-----3-----5---|-----3-----|
Play the intro as well when the pre-chorus is being played. Stop playing the intro when 
the chorus...

Chorus 2x
e|---------------|
B|---------------|
G|-----5~--------|
D|--7~-5~--5~-7~-|
A|--7~-3~--5~-7~-|
E|--5~-----3~-5~-|
Chorus is the same as the verse...

Solo
e|------------------------------------------------------------------------|
B|------------------------------------------------------------------------|
G|--9-9-9~---9-7/5-5-7-9-11-7~--7/5-5-7-7-7---7-5-4---5-4---4-------------|
D|7-------------------------------------------------7-----7---7-5-7~------|
A|------------------------------------------------------------------------|
E|------------------------------------------------------------------------|

e|------------------------------------------------------------------------|
B|------------------------------------------------------------------------|
G|------5-7/9-9-9~-9-7-5-5-7-9-11-7~-7/5-5-7-7-7--7-5-4---5-4---4---------|
D|---5-7------------------------------------------------7-----7---7-5-7---|
A|5-7---------------------------------------------------------------------|
E|------------------------------------------------------------------------|
The solo is not 100% rite by it still sounds quite nice...

Okay dude dats it, it's a very easy song, it took me ard 30 mins to remember the song.if 
can do it, so can U.
            
Submit corrections



        Skinhead For Life lessons Hard to play? Try these video lessons and learn fast Skinhead For Life lessons
        
↑ Back to top | Tablatures and chords for acoustic guitar and electric guitar, ukulele, drums are parodies/interpretations of the original songs. You may use it for private study, scholarship, research or language learning purposes only