Home » A » Abc »

Abc - The Real Thing Bass

Artists:  A B C D E F G H I J K L M N O P Q R S T U V W X Y Z # 

The Real Thing Bass

(ver. 1) Click to play this song!
Abc
Tuning: E, A, D, G

Intro: (Play 6 Times)

G|----------------------------------------------------------------------------|
D|--5-------------------------------------------------------------------------|
A|----3-0-0-1-1-1-0-3-5-------------------------------------------------------|
E|----------------------3-----------------------------------------------------|

Verse: 

G|----------------------------------------------------------------------------|
D|--5----------------5--------------5----------------5------------------------|
A|-----0--1-33-5-5------0--1--5-5------0--1-33-5-5------0--11-3-3-5-5---------|
E|----------------------------------------------------------------------------|

Chorus: (Play 4 Times)

G|----------------------------------------------------------------------------|
D|--5-------------------------------------------------------------------------|
A|----3-0-0-1-1-1-0-3-5-------------------------------------------------------|
E|----------------------3-----------------------------------------------------|

Repeat Intro: (Play Twice)

Repeat Verse:

Repeat Chorus:

Repeat Intro: (Play Twice)

Bridge:

G|----------------------------------------------------------------------------|
D|----------------------8--7------------------------8---5--8------------------|
A|--5-7-8--10-10-12-12----------05-7-77-7-10-12-12----------------------------|
E|---------------------6--5------------------------6--33-66-88----------------|

Guitar Solo: (Play 4 Times)

G|----------------------------------------------------------------------------|
D|--5-------------------------------------------------------------------------|
A|----3-0-0-1-1-1-0-3-5-------------------------------------------------------|
E|----------------------3-----------------------------------------------------|

Repeat Verse:

Repeat Chorus:

Repeat Intro: (Play 4 Times)

Repeat Chorus: (Play 8 Times)

Ending:

G|----------------------------------------------------------------------------|
D|--5-----------------------------5-------------------------------------------|
A|----3-0-0-1-1-1-0-3-5-------------3-0-0-1-1-1-0-3-5-(x1)--------------------|
E|----------------------3-(x15)-----------------------------------------------|            
Submit corrections

↑ Back to top | Tablatures and chords for acoustic guitar and electric guitar, ukulele, drums are parodies/interpretations of the original songs. You may use it for private study, scholarship, research or language learning purposes only