Home » A » Abc »

Abc - So Hip It Hurts Bass

Artists:  A B C D E F G H I J K L M N O P Q R S T U V W X Y Z # 

So Hip It Hurts Bass

(ver. 1) Click to play this song!
Abc
Bass Starts: 0:06

Intro: (Play Twice)

G|----------------------------------------------------------------------------|
D|----------------------------------------------------------------------------|
A|--5-5--------------------3--------------------------------------------------|
E|-------1-1-1--3-3-3--1-3----------------------------------------------------|

Verse: (Play 7 Times)

G|----------------------------------------------------------------------------|
D|----------------------------------------------------------------------------|
A|--5-5--------------------3--------------------------------------------------|
E|-------1-1-1--3-3-3--1-3----------------------------------------------------|

Bass Stops: (0:40 - 0:48)

Chorus: (Play 4 Times)

G|----------------------------------------------------------------------------|
D|----------------------------------------------------------------------------|
A|--5-5--------------------3--------------------------------------------------|
E|-------1-1-1--3-3-3--1-3----------------------------------------------------|

Keyboard Solo: (Play Twice)

G|----------------------------------------------------------------------------|
D|----------------------------------------------------------------------------|
A|--5-5--------------------3--------------------------------------------------|
E|-------1-1-1--3-3-3--1-3----------------------------------------------------|

Repeat Verse:

Bass Stops: (1:38 - 1:45)

Repeat Chorus: (Play 5 Times)

Keyboard Solo:

G|----------------------------------------------------------------------------|
D|----------------------------------------------------------------------------|
A|--5-5--------------------3-(x2)--5-(x1)----3-5-(x6)----3-(x1)---------------|
E|-------1-1-1--3-3-3--1-3-----------------3-----------3----------------------|

Bass Stops: (2:39 - 2:43)

Repeat Chorus: (Play 13 Times)

Bass Stops: (3:32 - 3:36)

Ending: (Play 10 Times) (Fades Out)

G|----------------------------------------------------------------------------|
D|----------------------------------------------------------------------------|
A|--5-5--------------------3--------------------------------------------------|
E|-------1-1-1--3-3-3--1-3----------------------------------------------------|

End: 

G|----------------------------------------------------------------------------|
D|----------------------------------------------------------------------------|
A|--5-5-----------------------------------------------------------------------|
E|-------1-1-1----------------------------------------------------------------|            
Submit corrections

↑ Back to top | Tablatures and chords for acoustic guitar and electric guitar, ukulele, drums are parodies/interpretations of the original songs. You may use it for private study, scholarship, research or language learning purposes only