» » »

Abc - Poison Arrow Bass

Artists:  A B C D E F G H I J K L M N O P Q R S T U V W X Y Z # 

Poison Arrow Bass

(ver. 1) Click to play this song!
Abc
 Rating:
4.3/5 (6 votes)

 Poison Arrow lessons Tabs too difficult? Try these video lessons and learn fast
 
                [Intro]

4 bars: no bass

G|-----------------------------------------------------------------|
D|-------------------------------------7-------8-------9---9-------|
A|-----------------------------------------------------------------|
E|---------------------------------5-------6-------7---------------|

G|-----------------------------------------------------------------|
D|-----------------5-------------------------------------------9---|
A|-7-----------5h7---7p5---5---5h7----------------------------(5)--|
E|---------------------------------5-----5-----7-------------------|

G|---------------------------------------------------------9~------|
D|-----------------5-----------------------------------7h9---------|
A|-7-----------5h7---7p5---5---5h7----------------------------(5)--|
E|---------------------------------5-----5-----7-------------------|

G|-------------------------------------------------------------7---|
D|-----------------5-----------------------------------------------|
A|-7-----------5h7---7p5---5---5h7----------------------------(5)--|
E|---------------------------------5-----5-----7-------------------|

G|-----------------------------------------------------------------|
D|-----------------5-------------------------------------------9---|
A|-7-----------5h7---7p5---5---5h7----------------------------(5)--|
E|---------------------------------5-----5-----7-------------------|

[Verse 1]

G|-----------------------------------------------------------------|
D|-----------------5-----------------------------------------------|
A|-7-----------5h7---7p5---5---5h7-----------------------------5---|
E|---------------------------------5-----5-----7-------------------|

G|---------------------------------------------------7h9---7h9-----|
D|-----------------5-----------------------------------------------|
A|-7-----------5h7---7p5---5---5h7----------------------------(5)--|
E|---------------------------------5-----5-----7-------------------|

G|-----------------------------------------------------------------|
D|-----------------5-----------------------------------------------|
A|-7-----------5h7---7p5---5---5h7-----------------------------5---|
E|---------------------------------5-----5-----7-------------------|

G|-------------------------------------------------------------7---|
D|-----------------5-----------------------------------------------|
A|-7-----------5h7---7p5---5---5h7---------------------------------|
E|---------------------------------5-----5-----7-------------------|

[Pre-chorus]

G|-------------------------------------------------------------7h9-|
D|-5---5-------5---5---------------4---4-------4---4-------7h9-----|
A|-----------------------------------------------------------------|
E|-----------------------------------------------------------------|

G|-----------------------------------------------------------------|
D|-----------------------------------------------------------------|
A|-7---7-------7---7-----------------------------------------------|
E|---------------------------------5---5-------5---5---------------|

G|-----------------------------------------------------------------|
D|-----------------------------------------------------------------|
A|---------------------------------5---5-------5---5-------6-------|
E|-7---7-------7---7-----------------------------------------------|


[Chorus]

G|-----------------------------------------------------------------|
D|-----------------5-------------------------------------------9---|
A|-7-----------5h7---7p5---5---5h7----------------------------(5)--|
E|---------------------------------5-----5-----7-------------------|

G|---------------------------------------------------------9~------|
D|-----------------5-----------------------------------7h9---------|
A|-7-----------5h7---7p5---5---5h7----------------------------(5)--|
E|---------------------------------5-----5-----7-------------------|

G|-------------------------------------------------------------7---|
D|-----------------5-----------------------------------------------|
A|-7-----------5h7---7p5---5---5h7----------------------------(5)--|
E|---------------------------------5-----5-----7-------------------|

G|-----------------------------------------------------------------|
D|-----------------5---------------------------------------12-\--0-|
A|-7-----------5h7---7p5---5---5h7---------------------------------|
E|-------------------------------------5-----5-----5---------------|


[Verse 2]

G|---------------------------------------------------7h9---7h9-----|
D|-----------------5-----------------------------------------------|
A|-7-----------5h7---7p5---5---5h7----------------------------(5)--|
E|---------------------------------5-----5-----7-------------------|

G|-------------------------------------------------------------9h11-|
D|-----------------5------------------------------------------------|
A|-7-----------5h7---7p5---5---5h7----------------------------(5)---|
E|---------------------------------5-----5-----7--------------------|

G|-----------------------------------------------------------------|
D|-----------------5-----------------------------------------------|
A|-7-----------5h7---7p5---5---5h7-----------------------------5---|
E|---------------------------------5-----5-----7-------------------|

G|-----------------------------------------------------------------|
D|-----------------5-----------------------------------------------|
A|-7-----------5h7---7p5---5---5h7-----------------------------5---|
E|---------------------------------5-----5-----7-------------------|
   /       /       /       /       /       /       /       /  
G|---------------------------------------------------------9h11p9---|
D|-----------------5-----------------------------------7h9----------|
A|-7-----------5h7---7p5---5---5h7-----------------------------(5)--|
E|---------------------------------5-----5-----7--------------------|

G|-----------------------------------------------------------------|
D|-----------------5-----------------------------------------------|
A|-7-----------5h7---7p5---5---5h7-----------------------------5---|
E|---------------------------------5-----5-----7-------------------|

G|-----------------------------------------------------------------|
D|-----------------5-----------------------------------------------|
A|-7-----------5h7---7p5---5---5h7-----------------------------5---|
E|---------------------------------5-----5-----7-------------------|

G|-----------------------------------------------------------------|
D|-----------------5-----------------------------------------------|
A|-7-----------5h7---7p5---5---5h7---------------------------------|
E|---------------------------------5-----5-----7-----------7---\---|

[Pre-chorus]

G|-----------------------------------------------------------------|
D|-5---5-------5---5---------------4---4-------4---4---------------|
A|-----------------------------------------------------------------|
E|-----------------------------------------------------------------|

G|-----------------------------------------------------------------|
D|-----------------------------------------------------------------|
A|-7---7-------7---7-----------------------------------------------|
E|---------------------------------5---5-------5---5---------------|

G|-----------------------------------------------------------------|
D|-----------------------------------------------------------------|
A|---------------------------------5---5-------5---5-------6-------|
E|-7---7-------7---7-----------------------------------------------|

[Chorus]

G|-----------------------------------------------------------------|
D|-----------------5-------------------------------------------9---|
A|-7-----------5h7---7p5---5---5h7----------------------------(5)--|
E|---------------------------------5-----5-----7-------------------|

G|-----------------------------------------------------------------|
D|-----------------5-----------------------------------------------|
A|-7-----------5h7---7p5---5---5h7-----------------------------5---|
E|---------------------------------5-----5-----7-------------------|

G|-------------------------------------------------------------7---|
D|-----------------5-----------------------------------------------|
A|-7-----------5h7---7p5---5---5h7----------------------------(5)--|
E|---------------------------------5-----5-----7-------------------|

G|-----------------------------------------------------------------|
D|-----------------5---------------------------------------12--\-2-|
A|-7-----------5h7---7p5---5---5h7---------------------------------|
E|-------------------------------------5-----5-----5---------------|

No bass: 6 bars

[Pre-chorus]

G|-------------------------------------------------------------7h9-|
D|-5---5-------5---5---------------4---4-------4---4---------------|
A|-----------------------------------------------------------------|
E|-----------------------------------------------------------------|

G|-----------------------------------------------------------------|
D|-----------------------------------------------------------------|
A|-7---7-------7---7-----------------------------------------------|
E|---------------------------------5---5-------5---5---------------|

G|-----------------------------------------------------------------|
D|-----------------------------------------------------------------|
A|---------------------------------5---5-------5---5-------6-------|
E|-7---7-------7---7-----------------------------------------------|

G|-----------------------------------------------------------------|
D|-5---5-------5---5---------------7---7-------7---7-------9---\---|
A|-----------------------------------------------------------------|
E|-----------------------------------------------------------------|

[Chorus]

G|-----------------------------------------------------------------|
D|-----------------5-----------------------------------------------|
A|-7-----------5h7---7p5---5---5h7-----------------------------5---|
E|---------------------------------5-----5-----7-------------------|

G|-----------------------------------------------------------------|
D|-----------------5-----------------------------------------------|
A|-7-----------5h7---7p5---5---5h7-----------------------------5---|
E|---------------------------------5-----5-----7-------------------|

G|-----------------------------------------------------------------|
D|-----------------5-----------------------------------------------|
A|-7-----------5h7---7p5---5---5h7-----------------------------5---|
E|---------------------------------5-----5-----7-------------------|

G|-----------------------------------------------------------------|
D|-----------------5---------------------------------------12--\---|
A|-7-----------5h7---7p5---5---5h7---------------------------------|
E|-------------------------------------5-----5-----5---------------|

[Outro]

G|-----------------------------------------------------------------|
D|-----------------5-----------------------------------------------|
A|-7-----------5h7---7p5---5---5h7-----------------------------5---|
E|---------------------------------5-----5-----7-------------------|

G|-----------------------------------------------------------------|
D|-----------------5-----------------------------------------------|
A|-7-----------5h7---7p5---5---5h7-----------------------------5---|
E|---------------------------------5-----5-----7-------------------|

G|-----------------------------------------------------------------|
D|-----------------5-----------------------------------------------|
A|-7-----------5h7---7p5---5---5h7-----------------------------5---|
E|---------------------------------5-----5-----7-------------------|

G|-----------------------------------------------------------------|
D|---------5-------------------------------------------------------|
A|-7---7-----7p5---7-----------------------------------------------|
E|-----------------------------------------------------------------|            
Submit corrections


        Poison Arrow lessons Hard to play? Try these video lessons and learn fast Poison Arrow lessons
        
↑ Back to top | Tablatures and chords for acoustic guitar and electric guitar, ukulele, drums are parodies/interpretations of the original songs. You may use it for private study, scholarship, research or language learning purposes only