» » »

Abba - Dancing Queen Bass

Artists:  A B C D E F G H I J K L M N O P Q R S T U V W X Y Z # 

Dancing Queen Bass

(ver. 2) Click to play this song!
Abba
 Rating:
2.4/5 (25 votes)

 Dancing Queen lessons Tabs too difficult? Try these video lessons and learn fast
 
                
1-4 Intro
G|----------------|----------------|----------------|----------------|
D|--------2---2---|----------------|--------2---2---|----------------|
A|0---0-----------|0---0-----------|0---0-----------|0---0-----------|
E|----------------|--------0---4---|----------------|--------0---4---|
5-8
G|----------------|----------------|----------------|----------------|
D|--------2---2---|----------------|----------------|----------------|
A|0---0-----------|0---0-----------|0---0---0-------|----------------|
E|----------------|--------0---4---|------------4---|2---2---0---4---|

9-12 Chorus
G|----------------|----------------|----------------|----------------|
D|----------------|--------1---2---|4---4---4---2---|1---1---1---4---|
A|------------2---|4---4-----------|----------------|----------------|
E|0---0---0-------|----------------|----------------|----------------|
  You              you              having           life
13-16
G|----------------|----------------|----------------|----------------|
D|0---0---0-------|----------------|--------2-------|----------------|
A|------------4---|2---2-----------|0---0-------0---|0---0-------4---|
E|----------------|--------0---2---|----------------|--------0-------|
  see              watch            Dancing         

17-20                                    Verse        
G|----------------|----------------|----------------|----------------|
D|----2-----------|----2-----------|----------------|----------------|
A|0-------0---0---|0-------0---0---|0---0---0---0---|0---0---0-------|
E|----------------|----------------|----------------|------------0---|
                                    Friday
21-24
G|----------------|----------------|----------------|----------------|
D|----------------|4---4---4-------|--------2-------|--------2-------|
A|0---0---0---2---|------------4---|------------0---|------------0---|
E|----------------|----------------|0---0-----------|0---0-----------|
  look                              where            get
25-28                      
G|----------------|----------------|----------------|----------------|
D|2---4---2---4---|----------------|----------------|----------------|
A|----------------|----------------|0---0---0---0---|0---0-----------|
E|----------------|2---2---2---4---|----------------|--------0---4---|
  look                              Any
29-32
G|----------------|----------------|----------------|----------------|
D|------------2---|4---4---2-------|--------4---2---|--------2---2---|
A|0---0---0-------|------------4---|----------------|----------------|
E|----------------|----------------|0---4-----------|0---4-----------|
  Night            high             With             every  
33-36
G|----------------|----------------|----------------|----------------|
D|2---4---4---4---|4---4---4-------|----------------|----------------|
A|----------------|------------4---|2---2-----------|----------------|
E|----------------|----------------|---------2---2--|0---0---0---4---|
  mood                              get
37-40
G|----------------|----------------|----------------|----------------|
D|----------------|----------------|------------2---|----------------|
A|0---0---0---2---|0---0-----------|0---0---0-------|0---0---0---2---|
E|----------------|--------0---2---|----------------|----------------|
  Dancing          young            seven
41-44
G|----------------|----------------|----------------|----------------|
D|----------------|----------------|----------------|----------------|
A|0---0---0---0---|0---0-------4---|0---0---0-------|----------------|
E|----------------|--------0-------|------------4---|2---2---0---0---|
  Dancing          feel             tambourine 

45-48 Chorus
G|----------------|----------------|----------------|----------------|
D|----------------|--------1---2---|4---4---4---2---|1---1---1---4---|
A|------------2---|4---4-----------|----------------|----------------|
E|0---0---0-------|----------------|----------------|----------------|
  You              you              having           life
49-52
G|----------------|----------------|----------------|----------------|
D|0---0---0-------|----------------|--------2-------|----------------|
A|------------4---|2---2-----------|0---0-------0---|0---0-----------|
E|----------------|--------0---2---|----------------|--------0---2---|
  see              watch            Dancing         
53-56                                            
G|----------------|----------------|----------------|----------------|
D|----------------|----------------|----------------|----------------|
A|0---0---0---0---|0---0---0-------|0---0---0---0---|0---0---0-------|
E|----------------|------------0---|----------------|------------2---|
             
55-58 Verse                      
G|----------------|----------------|
D|----------------|----------------|
A|0---0---0---0---|0---0-----------|
E|----------------|--------0---4---|
  You're
59-62
G|----------------|----------------|----------------|----------------|
D|------------2---|4---4---2-------|--------4---2---|--------2---2---|
A|0---0---0-------|------------4---|----------------|----------------|
E|----------------|----------------|0---4-----------|0---4-----------|
  Leave            gone             Looking          anyone     
63-66
G|----------------|----------------|----------------|----------------|
D|2---4---4---4---|4---4---4-------|----------------|----------------|
A|----------------|-------------4--|2---2-----------|----------------|
E|----------------|----------------|---------2---2--|0---0---0---4---|
  mood                              get
67-70
G|----------------|----------------|----------------|----------------|
D|----------------|----------------|------------2---|----------------|
A|0---0---0---0---|0---0-----------|0---0---0-------|0---0---0---2---|
E|----------------|--------0---2---|----------------|----------------|
  Dancing          young            seven
71-74
G|----------------|----------------|----------------|----------------|
D|----------------|----------------|----------------|----------------|
A|0---0---0---0---|0---0-------4---|0---0---0-------|----------------|
E|----------------|--------0-------|------------4---|2---2---0---0---|
  Dancing          feel             tambourine 

75-78 Chorus:
G|----------------|----------------|----------------|----------------|
D|----------------|--------1---2---|4---4---4---2---|1---1---1---4---|
A|------------2---|4---4-----------|----------------|----------------|
E|0---0---0-------|----------------|----------------|----------------|
  You              you              having           life
79-82
G|----------------|----------------|----------------|----------------|
D|0---0---0-------|----------------|--------2-------|----------------|
A|------------4---|2---2-----------|0---0-------0---|0---0-----------|
E|----------------|--------0---2---|----------------|--------0---2---|
  see              watch            Dancing         

Keep repeating the below:                                            
G|----------------|----------------|----------------|----------------|
D|----------------|----------------|----------------|----------------|
A|0---0---0---0---|0---0-----------|0---0---0---0---|0---0-----------|
E|----------------|--------0---0---|----------------|--------0---4---|
            
Submit corrections


        Dancing Queen lessons Hard to play? Try these video lessons and learn fast Dancing Queen lessons
        
↑ Back to top | Tablatures and chords for acoustic guitar and electric guitar, ukulele, drums are parodies/interpretations of the original songs. You may use it for private study, scholarship, research or language learning purposes only