» » »

Abandon All Ships - Megawacko 2.1 Tabs

Artists:  A B C D E F G H I J K L M N O P Q R S T U V W X Y Z # 

Megawacko 2.1 Tabs

(ver. 1) Click to play this song!
Abandon All Ships
 Rating:
4.3/5 (23 votes)

 Megawacko 2.1  lessons Tabs too difficult? Try these video lessons and learn fast
 
                0:38
e|-----------------------------------------------------------------------------|
B|-----------------------------------------------------------------------------|
G|-----------------------------------------------------------------------------|
D|-----------------------------------------------------------------------------|
A|-9--9---9--9--9--9--9--------5-5-5-5-5-5-5-5-5--5--5-7-7-7-7-7-7-7-7-7--7--7-|
D|-9--9---9--9--9--9--9--------5-5-5-5-5-5-5-5-5--5--5-7-7-7-7-7-7-7-7-7--7--7-|
   *      *     *  *           * * * * * * * *         * * * * * * * *

1:05
e|-----------------------------12---------------------------------------------------|
B|----------------------------------------------------------------------------------|
G|----------------------------------------------------------------------------------|
D|----------------------------------------------------------------------------------|
A|-----------------------------------0--1--0----0-0-0-0-0-0---------------0-0-0-0-0-|
D|-1--1--1----1--1--1--3b------------0--1--0----0-0-0-0-0-0-0-0-0-0--0-0--0-0-0-0-0-|
                               +     *  *  *    * * * * * *   * *    *    * * * * *

e|----------------------------------------5-----------------------------------|
B|---------------------------------------5------------------------------------|
G|--------------------------------------5-------------------------------------|
D|----------------------------------------------------------------------------|
A|-0--1--0----0-0-0-0-0-0------------------------0--2--2----------0--2--2-----|
D|-0--1--0----0-0-0-0-0-0-0-0-0-0--0-0-----------1--3--3----------1--3--3-----|
   *  *  *    * * * * * *   * *    *    +++      *  *  *          *  *  *

1:23
Rhythm
e|------------------------------------------------------------------------------------|
B|------------------------------------------------------------------------------------|
G|------------------------------------------------------------------------------------|
D|------------------------------------------------------------------------------------|
A|-5--------7----9----9-9-9-9-9-9-9-9-9-9-9-9-9-9-9-9-5-5-5-5-5-5-5-5-7-7-7-7-7-7-7-7-|
D|-5--------7----9----9-9-9-9-9-9-9-9-9-9-9-9-9-9-9-9-5-5-5-5-5-5-5-5-7-7-7-7-7-7-7-7-|

Lead
e|---------------------------------------------------------------------------------------|
B|---------------------------------------------------------------------------------------|
G|----------------------------------------------------7-7-7-5-7-5-4-5-9-9-9-9-11-9-11-13-|
D|---------------------------------------------------------------------------------------|
A|----------------------------------------------------5-5-5-3-5-3-2-3-7-7-7-7-9--7-9--11-|
D|---------------------------------------------------------------------------------------|

1:33
Rhythm
e|-----------------------------------------------------------------|
B|-----------------------------------------------------------------|
G|-----------------------------------------------------------------|
D|-----------------------------------------------------------------|
A|-9-9-9-9-9-9-9-9-9-9-9-9-9-9-9-9-5-5-5-5-5-5-5-5-7-7-7-7-7-7-7-7-|
D|-9-9-9-9-9-9-9-9-9-9-9-9-9-9-9-9-5-5-5-5-5-5-5-5-7-7-7-7-7-7-7-7-|

Lead
e|---------------------------------------------------------------------|
B|---------------------------------------------------------------------|
G|---------------------------------7-7-7-5-7-5-4-5-9-9-9-9-11-11-11-11-|
D|---------------------------------------------------------------------|
A|---------------------------------5-5-5-3-5-3-2-3-7-7-7-7-9--9--9--9--|
D|---------------------------------------------------------------------|

1:40
Rhythm
e|-----------------------------------------------------------------|
B|-----------------------------------------------------------------|
G|-----------------------------------------------------------------|
D|-----------------------------------------------------------------|
A|-9---9---9---9---9---9---9---9---5-5-5-5-5-5-5-5-7-7-7-7-7-7-7-7-|
D|-9---9---9---9---9---9---9---9---5-5-5-5-5-5-5-5-7-7-7-7-7-7-7-7-|

Lead
e|---------------------------------------------------------------------|
B|---------------------------------------------------------------------|
G|---------------------------------7-7-7-5-7-5-4-5-9-9-9-9-11-11-11-11-|
D|---------------------------------------------------------------------|
A|---------------------------------5-5-5-3-5-3-2-3-7-7-7-7-9--9--9--9--|
D|---------------------------------------------------------------------|

1:46
Rhythm
e|-----------------------------------------------------------------|
B|-----------------------------------------------------------------|
G|-----------------------------------------------------------------|
D|-----------------------------------------------------------------|
A|-9---9---9---9---9---9---9---9---5-5-5-5-5-5-5-5-7-7-7-7-7-7-7-7-|
D|-9---9---9---9---9---9---9---9---5-5-5-5-5-5-5-5-7-7-7-7-7-7-7-7-|

Lead
e|---------------------------------------------------------------------|
B|---------------------------------------------------------------------|
G|---------------------------------7-7-7-5-7-5-4-5-9-9-9-9-11-11-11-11-|
D|---------------------------------------------------------------------|
A|---------------------------------5-5-5-3-5-3-2-3-7-7-7-7-9--9--9--9--|
D|---------------------------------------------------------------------|

1:56
e|-----------------------------------------------------------------------------|
B|-----------------------------------------------------------------------------|
G|-----------------------------------------------------------------------------|
D|-----------------------------------------------------------------------------|
A|-9--9---9--9--9--9--9--------5-5-5-5-5-5-5-5-5--5--5-7-7-7-7-7-7-7-7-7--7--7-|
D|-9--9---9--9--9--9--9--------5-5-5-5-5-5-5-5-5--5--5-7-7-7-7-7-7-7-7-7--7--7-|
   *      *     *  *           * * * * * * * *         * * * * * * * *

2:33
Rhythm
e|---------------------------------|
B|---------------------------------|
G|---------------------------------|
D|---------------------------------|
A|-5-5-5-5-5-5-5-5-7-7-7-7-7-7-7-7-|
D|-5-5-5-5-5-5-5-5-7-7-7-7-7-7-7-7-|

Lead
e|------------------------------------|
B|------------------------------------|
G|-7-7-7-5-7-5-4-5-9-9-9-9-11-9-11-13-|
D|------------------------------------|
A|-5-5-5-3-5-3-2-3-7-7-7-7-9--7-9--11-|
D|------------------------------------|

2:36
Rhythm
e|-----------------------------------------------------------------|
B|-----------------------------------------------------------------|
G|-----------------------------------------------------------------|
D|-----------------------------------------------------------------|
A|-9-9-9-9-9-9-9-9-9-9-9-9-9-9-9-9-5-5-5-5-5-5-5-5-7-7-7-7-7-7-7-7-|
D|-9-9-9-9-9-9-9-9-9-9-9-9-9-9-9-9-5-5-5-5-5-5-5-5-7-7-7-7-7-7-7-7-|

Lead
e|---------------------------------------------------------------------|
B|---------------------------------------------------------------------|
G|---------------------------------7-7-7-5-7-5-4-5-9-9-9-9-11-11-11-11-|
D|---------------------------------------------------------------------|
A|---------------------------------5-5-5-3-5-3-2-3-7-7-7-7-9--9--9--9--|
D|---------------------------------------------------------------------|

2:42
Rhythm
e|-----------------------------------------------------------------|
B|-----------------------------------------------------------------|
G|-----------------------------------------------------------------|
D|-----------------------------------------------------------------|
A|-9---9---9---9---9---9---9---9---5-5-5-5-5-5-5-5-7-7-7-7-7-7-7-7-|
D|-9---9---9---9---9---9---9---9---5-5-5-5-5-5-5-5-7-7-7-7-7-7-7-7-|

Lead
e|---------------------------------------------------------------------|
B|---------------------------------------------------------------------|
G|---------------------------------7-7-7-5-7-5-4-5-9-9-9-9-11-11-11-11-|
D|---------------------------------------------------------------------|
A|---------------------------------5-5-5-3-5-3-2-3-7-7-7-7-9--9--9--9--|
D|---------------------------------------------------------------------|

2:49
Rhythm
e|-----------------------------------------------------------------|
B|-----------------------------------------------------------------|
G|-----------------------------------------------------------------|
D|-----------------------------------------------------------------|
A|-9---9---9---9---9---9---9---9---5-5-5-5-5-5-5-5-7-7-7-7-7-7-7-7-|
D|-9---9---9---9---9---9---9---9---5-5-5-5-5-5-5-5-7-7-7-7-7-7-7-7-|

Lead
e|---------------------------------------------------------------------|
B|---------------------------------------------------------------------|
G|---------------------------------7-7-7-5-7-5-4-5-9-9-9-9-11-11-11-11-|
D|---------------------------------------------------------------------|
A|---------------------------------5-5-5-3-5-3-2-3-7-7-7-7-9--9--9--9--|
D|---------------------------------------------------------------------|

2:56
Rhythm
e|----------------------------------------------------------------------|
B|----------------------------------------------------------------------|
G|----------------------------------------------------------------------|
D|----------------------------------------------------------------------|
A|-6--5--3--0-----------------------------------------------------------|
D|-6--5--3--0-----------------------------------------------------------|

Lead
e|----------------------------------------------------------------------|
B|----------------------------------------------------------------------|
G|----------11-11-11-11-11-11-11-11-11-11-11-11-11-11-11-11-11-11-11-11-|
D|----------------------------------------------------------------------|
A|----------9--9--9--9--9--9--9--9--9--9--9--9--9--9--9--9--9--9--9--9--|
D|----------------------------------------------------------------------|

2:59
e|---------------------------------------------------------------------|
B|---------------------------------------------------------------------|
G|---------------------------------------------------------------------|
D|---------------------------------------------------------------------|
A|----------0--------------------------------0--0--0--0--0-------------|
D|-6--5--3--0--------------------------------1--1--1--1--1-------------|
                                             *  *  *  *  *
3:05
e|----------------------------------------------------------------------------|
B|----------------------------------------------------------------------------|
G|----------------------------------------------------------------------------|
D|-------------------------------------------------------------------5------\-|
A|-0--0--0--6--0--0--5--0--0--3--0--0--2--0--2--3--0--0--0--6--0--0--5------\-|
D|-0--0--0--6--0--0--5--0--0--3--0--0--2--0--2--3--0--0--0--6--0--0--5------\-|
   *  *  *     *  *     *  *     *  *     *        *  *  *     *  *  

e|----------------------------------------------------------------------------|
B|----------------------------------------------------------------------------|
G|----------------------------------------------------------------------------|
D|-------------------------------------------------------------------5--------|
A|-0--0--0--6--0--0--5--0--0--3--0--0--2--0--2--3--0--0--0--6--0--0--5--------|
D|-0--0--0--6--0--0--5--0--0--3--0--0--2--0--2--3--0--0--0--6--0--0--5--------|
   *  *  *     *  *     *  *     *  *     *        *  *  *     *  *  

3:19
e|----------------------------------------------------------------------------------------------------------|
B|----------------------------------------------------------------------------------------------------------|
G|----------------------------------------------------------------------------------------------------------|
D|----------------------------------------------------------------------------------------------------------|
A|-0-0-0-0---0-0---0-0-0-0---0-0-0-0-0-0-------0-0-0-0---0-0-0--0-0-0-0---0-0-0-0-0-0-------0-0-0-0---0-0-0-|
D|-0-0-0-0---0-0---0-0-0-0---0-0-0-0-0-0-------0-0-0-0---0-0-0--0-0-0-0---0-0-0-0-0-0-------0-0-0-0---0-0-0-|
   * * * *   * *   * * * *   * * * * * *       * * * *   * * *  * * * *   * * * * * *       * * * *   * * *

3:27
e|-----------------------------------------------------------------------|
B|-----------------------------------------------------------------------|
G|-------------------2\--------------------------------------------------|
D|-------------------4\--------------------------------------------------|
A|-3-----------------4\---0--------0--0--0--------0--0--0--------0--0--0-|
D|----0--4--0--3--0--4\---0--------0--0--0--------0--0--0--------0--0--0-|
                          *        *  *  *        *  *  *        *  *  *

e|-----------------------------------------------------------------------|
B|-----------------------------------------------------------------------|
G|-----------------------------------------------------------------------|
D|-----------------------------------------------------------------------|
A|-3----------------------0--0000--0--0--0--------0--0--0--0000--0--0--0-|
D|----0--4--0--3--0--4b---0--0000--0--0--0--------0--0--0--0000--0--0--0-|
                     =    *  ****  *  *  *        *  *  *  ****  *  *  *

3:45
e|-----------------------------------------------------------------------|
B|-----------------------------------------------------------------------|
G|-------------------2\--------------------------------------------------|
D|-------------------4\--------------------------------------------------|
A|-3-----------------4\---0----------------------------------------------|
D|----0--4--0--3--0--4\---0----------------------------------------------|
                          *            
Submit corrections


        Megawacko 2.1  lessons Hard to play? Try these video lessons and learn fast Megawacko 2.1  lessons
        
↑ Back to top | Tablatures and chords for acoustic guitar and electric guitar, ukulele, drums are parodies/interpretations of the original songs. You may use it for private study, scholarship, research or language learning purposes only