Home » A » Aaron Tippin »

Aaron Tippin - My Blue Angel Tabs

Artists:  A B C D E F G H I J K L M N O P Q R S T U V W X Y Z # 

My Blue Angel Tabs

(ver. 1) Click to play this song!
Aaron Tippin
Intro:

---------------------------------------
---------------------------------------
---------------------------------------
-----0-0-3-0---------------------------
-0-3---------3-1-1-3-1-----------------
-----------------------3-1-------------

Ending

---------------------------------------
---------------------------------------
---------------------------------------
-----0-0-3-0---------------------------
-0-3---------3-1-1-3-1-0-----0---------
-------------------------3-3---3-0-1---
            
Submit corrections

↑ Back to top | Tablatures and chords for acoustic guitar and electric guitar, ukulele, drums are parodies/interpretations of the original songs. You may use it for private study, scholarship, research or language learning purposes only