Home » A » Aaron Shust »

Aaron Shust - Take Over Tabs

Artists:  A B C D E F G H I J K L M N O P Q R S T U V W X Y Z # 

Take Over Tabs

(ver. 1) Click to play this song!
Aaron Shust
 Rating:
4/5 (4 votes)
                'Take Over'
Standard Tuning(EADGBe)
No Capo


Okay guys, so this is gonna be pure acoustic... unlike my other songs i didn't 
want to tab out every guitar part... so this is just a 1 Guitar song...


Intro (2x):
e|--------------------------------------------------|
B|--5----5------12-----12-------7----7---7---7-(5)--|    Pick ONE-either
G|--5----5------12-----12-------7----7---7---7------|    play the (5) on
D|--------------------------------------------------|    the B string or
A|--3--3---3----10--10----10----5--5---5---5---(5)--|    play the (5) on
E|--------------------------------------------------|    the A string.
               OR                                        
e|--------------7----7-----------------------------|     
B|--5----5------8----8-------7----7---7---7-(5)----|
G|--5----5-------------------7----7---7---7--------|
D|--------------5--5---5---------------------------|
A|--3--3---3-----------------5--5---5---5---(5)----|
E|-------------------------------------------------|


Verse1 (4x):
e|--------------------------------------------------|
B|--5----5------12-----12-------7----7---7---7-(5)--|    Pick ONE-either
G|--5----5------12-----12-------7----7---7---7------|    play the (5) on
D|--------------------------------------------------|    the B string or
A|--3--3---3----10--10----10----5--5---5---5---(5)--|    play the (5) on
E|--------------------------------------------------|    the A string.
               OR                                        
e|--------------7----7-----------------------------|     
B|--5----5------8----8-------7----7---7---7-(5)----|
G|--5----5-------------------7----7---7---7--------|
D|--------------5--5---5---------------------------|
A|--3--3---3-----------------5--5---5---5---(5)----|
E|-------------------------------------------------|


Transition from Verse to Chorus (1x)
e|-------------------------------------------------|
B|--5----5---5---5------7----7---7---7-------------|
G|--5----5---5---5------7----7---7---7-------------|
D|-------------------------------------------------|
A|--3--3---3---3---3----5--5---5---5---(5)---------|
E|-------------------------------------------------|
                                 Now I'm Singing...


Chorus1 (4x):
     Em     C      G      D          
e|---0------0------3------3---------|
B|---0------1------0------2---------|
G|---0------0------0------3---------|
D|---2------2------0------0---------|
A|---2------3------2------0---------|
E|---0------0------3------0---------|
         OR (How I play it)
     Em     C2     G      D
e|---0------0------3------0h2-------|
B|---0------3------3------3---------|
G|---0------0------0------2---------|
D|---2------2------0------0---------|
A|---2------3------2------0---------|
E|---0------0------3------0---------|


Verse2 (4x):
e|--------------------------------------------------|
B|--5----5------12-----12-------7----7---7---7-(5)--|    Pick ONE-either
G|--5----5------12-----12-------7----7---7---7------|    play the (5) on
D|--------------------------------------------------|    the B string or
A|--3--3---3----10--10----10----5--5---5---5---(5)--|    play the (5) on
E|--------------------------------------------------|    the A string.
               OR                                        
e|--------------7----7-----------------------------|     
B|--5----5------8----8-------7----7---7---7-(5)----|
G|--5----5-------------------7----7---7---7--------|
D|--------------5--5---5---------------------------|
A|--3--3---3-----------------5--5---5---5---(5)----|
E|-------------------------------------------------|


Transition from Verse to Chorus (1x)
e|-------------------------------------------------|
B|--5----5---5---5------7----7---7---7-------------|
G|--5----5---5---5------7----7---7---7-------------|
D|-------------------------------------------------|
A|--3--3---3---3---3----5--5---5---5---(5)---------|
E|-------------------------------------------------|
                                So Now I'm Singing...

Chorus2 (4x):
     Em     C      G      D          
e|---0------0------3------3---------|
B|---0------1------0------2---------|
G|---0------0------0------3---------|
D|---2------2------0------0---------|
A|---2------3------2------0---------|
E|---0------0------3------0---------|
         OR (How I play it)
     Em     C2     G      D
e|---0------0------3------0h2-------|
B|---0------3------3------3---------|
G|---0------0------0------2---------|
D|---2------2------0------0---------|
A|---2------3------2------0---------|
E|---0------0------3------0---------|


Bridge (1x):
     C   D   C   D   C   D   Em   D   C
e|---0---3---0---3---0---3---0----3---0---|
B|---1---2---1---2---1---2---0----2---1---|
G|---0---3---0---3---0---3---0----3---0---|
D|---2---0---2---0---2---0---2----0---2---|      
A|---3---0---3---0---3---0---2----0---3---|  
E|---0---0---0---0---0---0---0----0---0---|       
         OR (How I play it)                  
     C   D   C   D   C   D   Em   D   C      
e|---3---3---3---3---3---3---3----3---3---|
B|---3---2---3---2---3---2---3----2---3---|
G|---0---3---0---3---0---3---0----3---0---|
D|---2---0---2---0---2---0---2----0---2---|
A|---3---0---3---0---3---0---2----0---3---|
E|---0---0---0---0---0---0---0----0---0---|

C        D
I surrender all I have
C            D
And I surrender all I am
C          D               Em       D     C
As I remember what You've done to set me free




Chorus3->Outro [Drum Solo 4x][Come in on the 5th time to the end]
     Em     C      G      D          
e|---0------0------3------3---------|
B|---0------1------0------2---------|
G|---0------0------0------3---------|
D|---2------2------0------0---------|
A|---2------3------2------0---------|
E|---0------0------3------0---------|
         OR (How I play it)
     Em     C2     G      D
e|---0------0------3------0h2-------|
B|---0------3------3------3---------|
G|---0------0------0------2---------|
D|---2------2------0------0---------|
A|---2------3------2------0---------|
E|---0------0------3------0---------|


OUTRO: Play this 3x
     Em     C      G      D          
e|---0------0------3------3---------|
B|---0------1------0------2---------|
G|---0------0------0------3---------|
D|---2------2------0------0---------|
A|---2------3------2------0---------|
E|---0------0------3------0---------|
         OR (How I play it)
     Em     C2     G      D
e|---0------0------3------0h2-------|
B|---0------3------3------3---------|
G|---0------0------0------2---------|
D|---2------2------0------0---------|
A|---2------3------2------0---------|
E|---0------0------3------0---------|

Then... this is the last measure of the song
     Em     C      D (Let the D ring out) 
e|---0------0------3---------|
B|---0------1------2---------|
G|---0------0------3---------|
D|---2------2------0---------|
A|---2------3------0---------|
E|---0------0------0---------|



-LYRICS-

-Verse 1
I tried to run
I tried to fight You
But I'm done
I'm giving up
I've learned to trust You, Your love

Now I'm singing...

-Chorus 1
Can You take over?
Take over
Can You take over me?
I've been here over and over again
Here on my knees
I'm only closer and closer
To where I wanna be
When You take over, take over
Can You take over me?

-Verse 2
I tried before
To let go
And I just hold on more
Amazing Lord
I need the strength to let go
And be Yours

So now I'm singing...

-Chorus 2
Can You take over?
Take over
Can You take over me?
I've been here over and over again
Here on my knees
I'm only closer and closer
To where I wanna be
When You take over, take over
Can You take over me?

-Bridge
I surrender all I have
And I surrender all I am
As I remember what You've done to set me free

I just want to sing...

-Chorus 3
Can You take over?
Take over
Can You take over me?
I've been here over and over again
Here on my knees
I'm only closer and closer
To where I wanna be
When You take over, take over
Can You take over me?

Can You take over?
Take over
Can You take over me?
I've been here over and over again
Here on my knees
I'm only closer and closer
To where I wanna be
When You take over, take over
Can You take over me?

-Outro
Take over me
Take over me 



Here is a link to the song:
            
Submit corrections

↑ Back to top | Tablatures and chords for acoustic guitar and electric guitar, ukulele, drums are parodies/interpretations of the original songs. You may use it for private study, scholarship, research or language learning purposes only