» » »

Aaliyah - Are You That Somebody Tabs

Artists:  A B C D E F G H I J K L M N O P Q R S T U V W X Y Z # 

Are You That Somebody Tabs

(ver. 2) Click to play this song!
Aaliyah
 Rating:
4/5 (4 votes)

 Are You That Somebody lessons Tabs too difficult? Try these video lessons and learn fast
 
                Just repeat this through the whole song
|------------------------------------------------------------------------|
|------------------------------------------------------------------------|
|------------------------------------------------------------------------|
|----------0-----------------------0----------------------0-0-0------|
|------------------0--------3---------3-----0----1--1---------0--0|
|-----------------------------------------------------------------------|
Just repeat this through the whole song
|------------------------------------------------------------------------|
|------------------------------------------------------------------------|
|------------------------------------------------------------------------|
|----------0-----------------------0----------------------0-0-0------|
|------------------0--------3---------3-----0----1--1---------0--0|
|-----------------------------------------------------------------------|
            
Submit corrections


        Are You That Somebody lessons Hard to play? Try these video lessons and learn fast Are You That Somebody lessons
        
↑ Back to top | Tablatures and chords for acoustic guitar and electric guitar, ukulele, drums are parodies/interpretations of the original songs. You may use it for private study, scholarship, research or language learning purposes only