» » »

Aaliyah - All I Need Tabs

Artists:  A B C D E F G H I J K L M N O P Q R S T U V W X Y Z # 

All I Need Tabs

(ver. 2) Click to play this song!
Aaliyah
 Rating:
2.9/5 (30 votes)

 All I Need lessons Tabs too difficult? Try these video lessons and learn fast
 
                   Two guitars playing at the same time
e------------------------------------------------------------|
B---6-7-5-7-6-7-6-7-5-7-6-7-6-7-5-7-6-7-7-9-7-9--------------|
G------------------------------------------------------------|
D------------------------------------------------------------|
A------------------------------------------------------------|
E------------------------------------------------------------|

e------------------------------------------------------------|
B------------------------------------------------------------|
G------------------------------------------------------------|
D-----9-----9-----9------------------------------------------|
A---7-----7-----7----7---------------------------------------|
E-7-----7-----7----7-----------------------------------------|            
Submit corrections


        All I Need lessons Hard to play? Try these video lessons and learn fast All I Need lessons
        
↑ Back to top | Tablatures and chords for acoustic guitar and electric guitar, ukulele, drums are parodies/interpretations of the original songs. You may use it for private study, scholarship, research or language learning purposes only