Home » A »

A - Took It Away Tabs

Artists:  A B C D E F G H I J K L M N O P Q R S T U V W X Y Z # 

Took It Away Tabs

(ver. 1) Click to play this song!
A
 Rating:
4/5 (4 votes)
                Tuning: Drop D (DADGBe)

Fairly simple little song here

VERSE
Play around with it for the timings/rhythm
e|---------------------------------------------------|
B|---------------------------------------------------|
G|---------------------------------------------------|
D|---------------------------------------------------|
A|--7-7--7---9-9--9---12-12-12--12-12-12---10-10-10--|
D|--0-0--0---0-0--0---9--9--9---10-10-10---10-10-10--|

Guitar 2 does this over the top at some points too:
e|------------------------|
B|------------------------|
G|------------------------|
D|------------------------|
A|--0-9-0-9-0-9-10--7/----|
D|--0-9-0-9-0-9-10--7/----|

CHORUS
Guitar 1
e|----------------------------------------------|
B|----------------------------------------------|
G|----------------------------------------------|
D|--0-0-0-0--10-10-10-10--9-9-9-9--10-10-10-10--|
A|--0-0-0-0--10-10-10-10--9-9-9-9--10-10-10-10--|
D|--0-0-0-0--10-10-10-10--9-9-9-9--10-10-10-10--|

Guitar 2 is doing something 'finger picky' maybe like this (also appears a bit 
later on after the breakdown):
e|-----------------------------------------------|
B|-----3-----3-----3-----3-----3----3---3--------|
G|---------2-----------0----------0-----0--------|
D|---0---0-------2---2------0---0------2---------|
A|-------------3----------2------------3---------|
D|-0---------------------------------------------|

Both guitars finish chorus on
e|--------------------------|
B|--3-3-3-3---0-0-0-0-------|
G|--0-0-0-0---0-0-0-0-------|
D|--2-2-2-2---0-0-0-0-------|
A|--3-3-3-3---x-x-x-x-------|
D|------------5-5-5-5-------|

Then in the next verse and during the breakdown you do this:
e|---------------------------------------|
B|---------------------------------------|
G|---------------------------------------|
D|--0-0--0-0-0----------0-9-0-9-0-9-10---|
A|--0-0--0-0-0----------0-9-0-9-0-9-10---|
D|--0-0--0-0-0--etc-----0-9-0-9-0-9-10---|

And thats everything you need to know to put the song together - enjoy!
            
Submit corrections

↑ Back to top | Tablatures and chords for acoustic guitar and electric guitar, ukulele, drums are parodies/interpretations of the original songs. You may use it for private study, scholarship, research or language learning purposes only