» » »

98 Mute - Judge And Jury Tabs

Artists:  A B C D E F G H I J K L M N O P Q R S T U V W X Y Z # 

Judge And Jury Tabs

(ver. 1) Click to play this song!
98 Mute
 Rating:
4.2/5 (5 votes)

 Judge And Jury lessons Tabs too difficult? Try these video lessons and learn fast
 
                98 Mute


Standard Tuning

Riff a
e|--------------------------------------| 
B|--------------------------------------| 
G|--------------------------------------| 
D|-7------------------6-7-777777777777--| 
A|-5-7-9-999999999999-4-5-555555555555--| 
E|---5-7-777777777777-------------------|
pm       ............     ............

Riff b
e|-------------------------------------| 
B|-------------------------------------| 
G|-------------------------------------| 
D|----------7-9-9999-------------------| 
A|-7-5-5555-5-7-7777-7-9-999999999999--| 
E|-5-3-3333----------5-7-777777777777--|
pm     ....     ....     ............

Riff a
e|-------------------------------------| 
B|-------------------------------------| 
G|-------------------------------------| 
D|-------------------6-7-777777777777--| 
A|--7-9-999999999999-4-5-555555555555--| 
E|--5-7-777777777777-------------------|
pm      ............     ............

Riff b
e|-------------------------------------| 
B|-------------------------------------| 
G|-------------------------------------| 
D|----------7-9-9999-------------------| 
A|-7-5-5555-5-7-7777-7-9-999999999999--| 
E|-5-3-3333----------5-7-777777777777--|
pm     ....     ....     

Pre-Chorus
e|------------------------------------| 
B|------------------------------------| 
G|------------------------------------| 
D|-4-4-6/7-----9999--4-4-6/7----------| 
A|-2-2-4/5-555-7777--2-2-4/5-555-4/7--| 
E|---------333---------------333-2/5--|

e|------------------------------------| 
B|------------------------------------| 
G|------------------------------------| 
D|-4-4-6/7-----9999--4-4-6/7-444444---| 
A|-2-2-4/5-555-7777--2-2-4/5-222222---| 
E|---------333------------------------|

Chorus (play this 3x)
e|--------------------------------| 
B|--------------------------------| 
G|--------------------------------| 
D|----------------99999999999999--| 
A|-5-555555555555-77777777777777--| 
E|-3-333333333333-----------------| 
pm   ............

Then...
e|------------------------------| 
B|------------------------------| 
G|------------------------------| 
D|-444444444444-7-444444444444--| 
A|-222222222222-5-222222222222--| 
E|------------------------------|
pm                ............

Pre-Chorus
e|------------------------------------| 
B|------------------------------------| 
G|------------------------------------| 
D|-4-4-6/7-----9999--4-4-6/7----------| 
A|-2-2-4/5-555-7777--2-2-4/5-555-4/7--| 
E|---------333---------------333-2/5--|

e|------------------------------------| 
B|------------------------------------| 
G|------------------------------------| 
D|-4-4-6/7-----9999--4-4-6/7-444444---| 
A|-2-2-4/5-555-7777--2-2-4/5-222222---| 
E|---------333------------------------|

Riff a
e|---------------------------------| 
B|---------------------------------| 
G|---------------------------------| 
D|---------------6-7-777777777777--| 
A|--999999999999-4-5-555555555555--| 
E|--777777777777-------------------|
pm  ............     ............

Riff b
e|-------------------------------------| 
B|-------------------------------------| 
G|-------------------------------------| 
D|----------7-9-9999-------------------| 
A|-7-5-5555-5-7-7777-7-9-999999999999--| 
E|-5-3-3333----------5-7-777777777777--|
pm     ....     ....     ............

Riff a
e|-------------------------------------| 
B|-------------------------------------| 
G|-------------------------------------| 
D|-------------------6-7-777777777777--| 
A|--7-9-999999999999-4-5-555555555555--| 
E|--5-7-777777777777-------------------|
pm      ............     ............

Riff b
e|-------------------------------------| 
B|-------------------------------------| 
G|-------------------------------------| 
D|----------7-9-9999-------------------| 
A|-7-5-5555-5-7-7777-7-9-999999999999--| 
E|-5-3-3333----------5-7-777777777777--|
pm     ....     ....     

Pre-Chorus
e|------------------------------------| 
B|------------------------------------| 
G|------------------------------------| 
D|-4-4-6/7-----9999--4-4-6/7----------| 
A|-2-2-4/5-555-7777--2-2-4/5-555-4/7--| 
E|---------333---------------333-2/5--|

e|------------------------------------| 
B|------------------------------------| 
G|------------------------------------| 
D|-4-4-6/7-----9999--4-4-6/7-444444---| 
A|-2-2-4/5-555-7777--2-2-4/5-222222---| 
E|---------333------------------------|

Chorus (play this 3x)
e|--------------------------------| 
B|--------------------------------| 
G|--------------------------------| 
D|----------------99999999999999--| 
A|-5-555555555555-77777777777777--| 
E|-3-333333333333-----------------| 
pm   ............

Then...
e|------------------------------| 
B|------------------------------| 
G|------------------------------| 
D|-444444444444-7-444444444444--| 
A|-222222222222-5-222222222222--| 
E|------------------------------|
pm                ............

SOLO (or as close to it as possible)
(these are 12's and 10's, not 1's and 2's and 0's)
e|-------12-12-10-9-9-10-------10(6x)-14(6x)-12-12-12-10-10-10----------| 
B|-12(6x)----------------12(6x)--------------------------------12(12x)--| 
G|----------------------------------------------------------------------| 
D|----------------------------------------------------------------------| 
A|------------(play solo twice)-----------------------------------------| 
E|----------------------------------------------------------------------|
(6x=times note is played. listen to song for exact rhythm and strumming pattern)
            
Submit corrections


        Judge And Jury lessons Hard to play? Try these video lessons and learn fast Judge And Jury lessons
        
↑ Back to top | Tablatures and chords for acoustic guitar and electric guitar, ukulele, drums are parodies/interpretations of the original songs. You may use it for private study, scholarship, research or language learning purposes only