Home » # » 68 Revel »

68 Revel - Track 10 Tabs

Artists:  A B C D E F G H I J K L M N O P Q R S T U V W X Y Z # 

Track 10 Tabs

(ver. 1) Click to play this song!
68 Revel
 Rating:
4/5 (4 votes)
                Tuning: standard


e|---------------------------------------------------------------------------|
B|---------------------------------------------------------------------------|
G|---------------------------------------------------------------------------|
D|1~11111~11111~11111/2222/44------------------------------------------------|
A|1~11111~11111~11111/2222/44------------------------------------------------|
E|---------------------------------------------------------------------------|

e|-----------------------------------|    |-----|
B|-----------------------------------|    |-----|
G|-----2-----2---------2-----2-------|    |----4|
D|---11----2-----1~~11----2-----1~~--|    |--3--|
A|0~~----0-----0---------0-----0-----|    |2----|
E|-----------------------------------|    |-----|

e|---------------------|
B|---------------------|
G|----4------5------7--|
D|--3------4------6----|
A|2------3------5------|
E|---------------------|

e|---------------------------------------------------------|
B|------9-------9-------9-------9-------9-------9-------9--|
G|---10------10------10------10------10------10------10----|
D|10------10------10------10------10------10------10-------|
A|---------------------------------------------------------|
E|---------------------------------------------------------|

e|---------------------------------------------------------|
B|-----8------8------8------8------8------8------8------8--|
G|---9------9------9------9------9------9------9------9----|
D|10-----10-----10-----10-----10-----10-----10-----10------|
A|---------------------------------------------------------|
E|---------------------------------------------------------|

            
Submit corrections

↑ Back to top | Tablatures and chords for acoustic guitar and electric guitar, ukulele, drums are parodies/interpretations of the original songs. You may use it for private study, scholarship, research or language learning purposes only