Home » # » 68 Revel »

68 Revel - No Apologies Tabs

Artists:  A B C D E F G H I J K L M N O P Q R S T U V W X Y Z # 

No Apologies Tabs

(ver. 1) Click to play this song!
68 Revel
 Rating:
4.4/5 (5 votes)
                [Intro]
C |---------------------------------------------------------------------------|
G |---------------------------------------------------------------------------|
D#|---------------------------------------------------------------------------|
A#|10-8-10-5-----------------------------------------------------3------------|
F |--------------------------------------------------3-----0-3h5---5-3--------|
C |------------00xxx9-5--00xxx9-3h5--00xxx9-5--0-3h5---5-3--------------------|
This is the basics of the intro, there are variations that I haven't totally figured out yet.

C |---------------------------------------------------------------------------|
G |---------------------------------------------------------------------------|
D#|---------------------------------------------------------------------------|
A#|2----2222----2-----2222-----------------------3----------------------------|
F |2----2222----2-----2222-----------3-----0-3h5---5-3------------------------|
C |0----0000----0-----0000-----0-3h5---5-3------------------------------------|
"And dare I say..."

C |---------------------------------------------------------------------------|
G |---------------------------------------------------------------------------|
D#|---------------------------------------------------------------------------|
A#|22--------22----------22--------------------------3------------------------|
F |22--------22----------22--------------3-----0-3h5---5-3--------------------|
C |00xxx9-5--00xxx9-3h5--00xxx9-5--0-3h5---5-3--------------------------------|
I believe the next part is the same as the intro but with the open C string changed to the chord.

[Chorus]
C |---------------------------------------------------------------------------|
G |---------------------------------------------------------------------------|
D#|---------------------------------------------------------------------------|
A#|2----2222----2-----2222-----------------------3----------------------------|
F |2----2222----2-----2222-----------3-----0-3h5---5-3------------------------|
C |0----0000----0-----0000-----0-3h5---5-3------------------------------------|
"And dare I say..."

C |---------------------------------------------------------------------------|
G |---------------------------------------------------------------------------|
D#|---------------------------------------------------------------------------|
A#|22222-7-10-22222-7-10\9--22222-7-10-555555-444444--------------------------|
F |22222-7-10-22222-7-10\9--22222-7-10-555555-444444--------------------------|
C |00000-5-8--00000-5-8-\7--00000-5-8--333333-222222--------------------------|
"When they take me away..."

C |---------------------------------------------------------------------------|
G |---------------------------------------------------------------------------|
D#|---------------------------------------------------------------------------|
A#|22222-7-10-22222-7-10\9--22222-7-10-555555-444444--2-----------------------|
F |22222-7-10-22222-7-10\9--22222-7-10-555555-444444--2-----------------------|
C |00000-5-8--00000-5-8-\7--00000-5-8--333333-222222--0-----------------------|
                                      |Repeat these |
                                       3 times            
Submit corrections

↑ Back to top | Tablatures and chords for acoustic guitar and electric guitar, ukulele, drums are parodies/interpretations of the original songs. You may use it for private study, scholarship, research or language learning purposes only