Home » # » 4 Skins »

4 Skins - Manifesto Bass

Artists:  A B C D E F G H I J K L M N O P Q R S T U V W X Y Z # 

Manifesto Bass

(ver. 1) Click to play this song!
4 Skins
Verse:

G:-------------------------------------------------|
D:--------------222-333-22-------------222-333-5---|
A:-------333-55-----------------333-55-------------|
E:---333--------------------333--------------------|


Pre-Chorus:

G:---------------------------------------|
D:---5-555555-3-333333-2-222222----4-5---|
A:------------------------------55-------|
E:---------------------------------------|

Chorus:

G:-----------------------------------------------|
D:----------------------------------------5------|
A:-------333-5-----333-5--777-------777-5--------|
E:---555-------555------------888—5--------------|

End:

G:------------|
D:------------|
A:------------|
E:---5----5---|

The order is:
.Verse x6
.Pre-Chorus x2
.Chorus x1
.Verse x3
.Pre-Chorus x2
.Chorus x1
.Verse x4
.Pre-Chorus x2
.Chorus x1
.Verse x3
.End x1            
Submit corrections

↑ Back to top | Tablatures and chords for acoustic guitar and electric guitar, ukulele, drums are parodies/interpretations of the original songs. You may use it for private study, scholarship, research or language learning purposes only