» » »

A.C.A.B Bass - 4 Skins

Artists:  A B C D E F G H I J K L M N O P Q R S T U V W X Y Z # 

A.C.A.B Bass

(ver. 1)
4 Skins Tabs
4/5 (4 votes)
    A.C.A.B lessons Tabs too difficult? Try these video lessons and learn fast
                Intro / Verse part 1
G -----------------------------------|
D -----------------------------------|
A -----------------------------------|
E --7777---5-5-5---3333---0-0-0------|

Verse part 2                                    play each (part 1 then 2)
G -----------------------------------|           up til chorus
D -----------------------------------|
A -----------------------------------|
E --7777---5-5-5---3333---7-7-7------|

G  -------------------------------------------
D "A  C A  B       A  C A  B        A  C A  B"
A  -------------------------------------------|
E  33--55--7-------33--55--7--------33--55--7-|

After the chorus, stop while he shouts "ALL COPS ARE BASTARDS!"
or you can play along with the guitar while singing "ALL COPS ARE BASTARDS!"

G -----------------------------------|
D --"ALL COPS ARE BASTARDS!"---------|
A ------7-7-7-7-7-7-7-7--------------|
E -----------------------------------|

just figure out the order, if u cant play it u deserve a beating..... or lessons
Submit corrections

↑ Back to top | 4 Skins Bass for A.C.A.B. Lyrics for acoustic guitar and electric guitar. Tablatures and chords are parodies/interpretations of the original songs. You may use it for private study, scholarship, research or language learning purposes only