Home » # » 4 Skins »

4 Skins - 1984 Bass

Artists:  A B C D E F G H I J K L M N O P Q R S T U V W X Y Z # 

1984 Bass

(ver. 1) Click to play this song!
4 Skins
Pre-Verse/Pre-Chorus:

G:---------------------------------------|
D:---------------------------------------|
A:------------77-55-4----------55-33-2---|
E:---5-555555---------3-333333-----------|

Verse:

G:---------------------------------------|
D:---------------------------------------|
A:------------77-55-4----------55-33-2---|
E:---5-555555---------3-333333-----------|

G:---------------------------------------|
D:---------------55---------------33-----|
A:------------77----7----------55----5---|
E:---5-555555---------3-333333-----------|

Chorus:

G:-----------------------------------------------------------------|
D:-----------------------------------------------------------------|
A:-----------------------------------------------------------------|
E:---1-11111-3-333333-1-11111-5-555555-1-111111111-2-3-333333333---|

Bridge:

G:-------------------------------------|
D:-------------------------------------|
A:-------------------------------------|
E:---5-55-3-33-0-0-3-33--5-55-3-33-0---|

End:

G:-------|
D:-------|
A:-------|
E:---5---|

The order is:
.Pre-Verse x2
.Verse x1
.Pre-Chorus x1
.Chorus 1
.Pre Verse x1
.Verse x1
.Pre-Chorus x1
.Chorus x1
.Bridge x2
.Pre-Verse x1
.Verse x1
.Pre-Chorus x1
.Chorus x1
.End x1            
Submit corrections

↑ Back to top | Tablatures and chords for acoustic guitar and electric guitar, ukulele, drums are parodies/interpretations of the original songs. You may use it for private study, scholarship, research or language learning purposes only