» » »

409 Arrest - Eye Tabs

Artists:  A B C D E F G H I J K L M N O P Q R S T U V W X Y Z # 

Eye Tabs

(ver. 1) Click to play this song!
409 Arrest
 Rating:
4/5 (4 votes)
                This tab is simple it is just  a (C) Chord and a (D) Chord
  and a (G) Chord and two other chords i dont know but listen and figure it out

   (just ignore the tabs below)


----------------------------------------------------
-------------------3--------------------------------
--77---------------663------------------------------
---77----3-6-3-3--3---6-----------------------------
-----77----6----------3-----------------------------
------7---------------------------------------------

----------------------------------------------------
--2-------------------------------------------------
--5-------6-46--------------------------------------
--2----62-----54-2-5--6-----------------------------
----2-----------------------------------------------
----------------------------------------------------
            
Submit corrections

↑ Back to top | Tablatures and chords for acoustic guitar and electric guitar, ukulele, drums are parodies/interpretations of the original songs. You may use it for private study, scholarship, research or language learning purposes only