» » »

3 Feet Smaller - Suffocate Me Bass

Artists:  A B C D E F G H I J K L M N O P Q R S T U V W X Y Z # 

Suffocate Me Bass

(ver. 1) Click to play this song!
3 Feet Smaller
 Rating:
4/5 (4 votes)
    Suffocate Me lessons Tabs too difficult? Try these video lessons and learn fast
                3 feet smaller - suffocate me

intro - bass

E--3-------------------|
A----2---3---5---------|   8 times each
D----------------------|
G----------------------|


E--3-------------------|
A----2---3---5---------|   8 times each
D----------------------|
G----------------------|


Verse:

E--3-------------------|
A----2---3---5---------|   8 times each
D----------------------|
G----------------------|

E--3-------------------|
A----2---3---5---------|   8 times each
D----------------------|
G----------------------|


You can play the same even @ chorus
            
Submit corrections

↑ Back to top | Tablatures and chords for acoustic guitar and electric guitar, ukulele, drums are parodies/interpretations of the original songs. You may use it for private study, scholarship, research or language learning purposes only