Home » # » 38 Special »

38 Special - Hold On Loosely Tabs

Artists:  A B C D E F G H I J K L M N O P Q R S T U V W X Y Z # 

Hold On Loosely Tabs

(ver. 2) Click to play this song!
38 Special
 Rating:
3.3/5 (15 votes)
                This is the important part of the solo that anyone would recognize, after this just do your thing.

h=hammeron
p=pull off
b=bend
#/# = slide from fret to fret
#/ = slide from fret down the neck

|-12-12-12-12-12-12----------12-12-12-12-11-----------|
|-------------------14p12-------------------14-12-12-12
|-------------------------13--------------------------|
|-----------------------------------------------------|
|-----------------------------------------------------|
|-----------------------------------------------------|

|-----------------------------------------------------|
|12/--------------------------------------------------|
|----13/14-13-11--------------------------------------|
|----------------14-13-14-----------------------------|
|-----------------------------------------------------|
|-----------------------------------------------------|

Each note gets played a few times but as long as you time 
it so that it fits into these beats you'll sound good

  1               2             3         4
|----------------------------------11-12x5------------|
|----------------------------12-14---------12h14p12---|
|-------------------11-13-14------------------------13|
|----------11-13-14-----------------------------------|
|-11-12-14--------------------------------------------|
|-----------------------------------------------------|

|------12-12-12-12-12-11--------------12----12-----12-|
|12-14-------------------14-12---12b14-12b14--12b14---|
|-----------------------------------------------------|
|-----------------------------------------------------|
|-----------------------------------------------------|
|-----------------------------------------------------|

|-----------------------------------------------------|
|12b14r12---------------------------------------------|
|---------14-14-14-14-13-11---------------------------|
|---------------------------14------------------------|
|-----------------------------------------------------|
|-----------------------------------------------------|
            
Submit corrections

↑ Back to top | Tablatures and chords for acoustic guitar and electric guitar, ukulele, drums are parodies/interpretations of the original songs. You may use it for private study, scholarship, research or language learning purposes only