» » »

30 Seconds To Mars - Was It A Dream Tabs

Artists:  A B C D E F G H I J K L M N O P Q R S T U V W X Y Z # 

Was It A Dream Tabs

(ver. 3) Click to play this song!
30 Seconds To Mars
 Rating:
4/5 (4 votes)

 Was It A Dream lessons Tabs too difficult? Try these video lessons and learn fast
 
                "(2)
Band: 30 Seconds To Mars
Tuning: Drop D


Ok So I got this video off Ares. He's playing it acoustic at a Virgin store or 
This is what I play and it sounds

fairly great to me. This is my first tab.It's also my first version so I'm working on a 
one. I'm sure he plays the

Verses differently and I know how they go but there's a slight kink I'm working out so 
use this for now. =D

A:x244xxx
B:x577xxx
C:x799xxx
D:x91111xxx


Verses 1 And 2
_____________________________________

e|---------------------|-----------------|--------------------|-----------------|
b|---------------------|-----------------|--------------------|-----------------|
g|---------------------|-----------------|--------------------|-----------------|
d|-----2---3p2---2-----|-----5------5----|-----2---3p2---2----|-----5------7----|
a|-0-0---0-----0-------|-3-3----3-3------|-0-0---0-----0------|-3-3----5-5------|
D|---------------------|-----------------|--------------------|-----------------|

e|---------------------|-----------------|-----------------|-----------------|       
b|---------------------|-----------------|-----------------|-----------------|
g|---------------------|-----------------|-----------------|-----------------|           
d|-----2---3p2---2-----|-----5------5----|-----5------5----|-----9------9----|           
a|-0-0---0-----0-------|-3-3----3-3------|-----------------|-7-7----7-7------|           
D|---------------------|-----------------|-5-5----5-5------|-----------------|

Chorus:


B
Was It A Dream?

C
Was It A Dream?

       A             D
Is this the only evidence that Proves it

B               C
A Photograph Of You and I


(Verse 2)


Chorus:

B
Was It A Dream?

C
Was It A Dream?

       A             D
Is this the only evidence that Proves it

B               C
A Photograph Of You and I
Chorus:

B
Was It A Dream?

C
Was It A Dream?

       A             D
Is this the only evidence that Proves it

B               C
A Photograph Of You and I

Ending:

B               C
A Photograph of you and I

B               C
A Photograph Of you and I

B               C
A Photograph of you and I_________________

In

Love

e|---------------------|
b|---------------------|
g|---------------------|    x'S 4
d|-----2---3p2---2-----|
a|-0-0---0-----0-------|
D|---------------------|

e|---------------------|
b|---------------------|
g|-------2~------------|
d|-------2~------------|
a|-------0~------------|
D|---------------------|
"            
Submit corrections


        Was It A Dream lessons Hard to play? Try these video lessons and learn fast Was It A Dream lessons
        
↑ Back to top | Tablatures and chords for acoustic guitar and electric guitar, ukulele, drums are parodies/interpretations of the original songs. You may use it for private study, scholarship, research or language learning purposes only