» » »

30 Seconds To Mars - The Kill Tabs

Artists:  A B C D E F G H I J K L M N O P Q R S T U V W X Y Z # 

The Kill Tabs

(ver. 13) Click to play this song!
30 Seconds To Mars
 Rating:
4.3/5 (27 votes)

 The Kill lessons Tabs too difficult? Try these video lessons and learn fast
 
                [Verse 1] (x2)
Guitar 1 (clean):
e|-----------------|-----------------|-----------------|-----------------|
B|----0-------0----|----0-------0----|----0-------0----|----0-------0----|
G|-----------------|-----------------|-----------------|-----------------|
D|-5-5-5---5-5-5---|-5-5-5---5-5-5---|-7-7-7---7-7-7---|-7-7-7---7-7-7---|
A|-3-------3-------|-3-------3-------|-5-------5-------|-5-------5-------|
E|-----------------|-----------------|-----------------|-----------------|
 
e|-----------------|-----------------|-----------------|-----------------|
B|----0-------0----|----0-------0----|----0-------0----|----0-------0----|
G|-----------------|-----------------|-----------------|-----------------|
D|-9-9-9---9-9-9---|-9-9-9---9-9-9---|-4-4-4---4-4-4---|-4-4-4---4-4-4---|
A|-7-------7-------|-7-------7-------|-2-------2-------|-2-------2-------|
E|-----------------|-----------------|-----------------|-----------------|

[Chorus 1] 
Guitars 1 & 2:
e|-----------------|-----------------|-----------------|-----------------|
B|-----------------|-----------------|-----------------|-----------------|
G|-5---------------|-5---------------|-7---------------|-7-------11------|
D|-5---------------|-5---------------|-7---------------|-7-------x-------|
A|-3---------------|-3---------------|-5---------------|-5-------9-------|
E|-----------------|-----------------|-----------------|-----------------|
 
e|-----------------|-----------------|-----------------|-----------------|
B|-----------------|-----------------|-----------------|-----------------|
G|-9---------------|-9---------------|-4---------------|-4---------------|
D|-9---------------|-9---------------|-4---------------|-x---------------|
A|-7---------------|-7---------------|-2---------------|-2---------------|
E|-----------------|-----------------|-----------------|-----------------|

[Verse 2] (x2)
Guitar 1:
e|-----------------|-----------------|-----------------|-----------------|
B|-----------------|-----------------|-----------------|-----------------|
G|-12p9------------|-12p9------------|-12p9------------|-12p9------------|
D|------10p9----9--|------10p9----9--|------10p9----9--|------10p9----9--|
A|-----------10----|-----------10----|-----------10----|-----------10----|
E|-----------------|-----------------|-----------------|-----------------|
 
e|-----------------|-----------------|-----------------|-----------------|
B|-----------------|-----------------|-----------------|-----------------|
G|--------12-------|--------12-------|--------12-------|---------12------|
D|-9-10-9----------|-9-10-9----------|-9-10-9----------|--9-10-9---------|
A|-----------------|-----------------|-----------------|-----------------|
E|-----------------|-----------------|-----------------|-----------------|

e|-----------------|-----------------|-----------------|-----------------|
B|-----------------|-----------------|-----------------|-----------------|
G|-12p9------------|-12p9------------|-12p9------------|-12p9------------|
D|------10p9----9--|------10p9----9--|------10p9----9--|------10p9----9--|
A|-----------10----|-----------10----|-----------10----|-----------10----|
E|-----------------|-----------------|-----------------|-----------------|
 
e|-----------------|-----------------|-----------------|-----------------|
B|-----------------|-----------------|--------10-------|---------12------|
G|--------12-------|--------12-------|-----------------|-----------------|
D|-9-10-9----------|-9-10-9----------|-9-10-9----------|--9-10-9---------|
A|-----------------|-----------------|-----------------|-----------------|
E|-----------------|-----------------|-----------------|-----------------|

[Chorus 2]
Guitars 1 & 2:
e|-----------------|-----------------|-----------------|-----------------|
B|-----------------|-----------------|-----------------|-----------------|
G|-5---------------|-5---------------|-7---------------|-7-------11------|
D|-5---------------|-5---------------|-7---------------|-7-------x-------|
A|-3---------------|-3---------------|-5---------------|-5-------9-------|
E|-----------------|-----------------|-----------------|-----------------|
 
e|-----------------|-----------------|-----------------|-----------------|
B|-----------------|-----------------|-----------------|-----------------|
G|-9---------------|-9---------------|-4-------5-------|-7-------14------|
D|-9---------------|-9---------------|-x-------x-------|-x-------x-------|
A|-7---------------|-7---------------|-2-------3-------|-5-------12------|
E|-----------------|-----------------|-----------------|-----------------|

Guitar 1:
e|-----------------|-----------------|-----------------|-----------------|
B|-----------------|-----------------|-----------------|-----------------|
G|-5---------------|-5---------------|-7---------------|-7-------11------|
D|-5---------------|-5---------------|-7---------------|-7-------x-------|
A|-3---------------|-3---------------|-5---------------|-5-------9-------|
E|-----------------|-----------------|-----------------|-----------------|
 
e|-----------------|-----------------|-----------------|-----------------|
B|-----------------|-----------------|-----------------|-----------------|
G|-9---------------|-11--------------|-16--------------|-16--------------|
D|-9---------------|-x---------------|-x---------------|-x---------------|
A|-7---------------|-9---------------|-14--------------|-14--------------|
E|-----------------|-----------------|-----------------|-----------------|

Guitar 2:
e|-----------------|-----------------|-----------------|-----------------|
B|-----------------|-----------------|-----------------|-----------------|
G|-12--------------|-12--------------|-14--------------|-14--------------|
D|-x---------------|-x---------------|-x---------------|-x---------------|
A|-10--------------|-10--------------|-12--------------|-12--------------|
E|-----------------|-----------------|-----------------|-----------------|
 
e|-----------------|-----------------|-----------------|-----------------|
B|-----------------|-----------------|-----------------|-----------------|
G|-16--------------|-16--------------|-16--------------|-16--------------|
D|-x---------------|-x---------------|-x---------------|-x---------------|
A|-14--------------|-14--------------|-14--------------|-14--------------|
E|-----------------|-----------------|-----------------|-----------------|

[Bridge] 
Guitar 1:
e|-----------------|-----------------|-----------------|-----------------|
B|-----------------|-----------------|-----------------|-----------------|
G|-7---------------|-7---------------|-4---------------|-4---------------|
D|-9---------------|-9---------------|-2---------------|-2---------------|
A|-----------------|-----------------|-----------------|-----------------|
E|-----------------|-----------------|-----------------|-----------------|

Guitar 2:
e|-----------------|-----------------|-----------------|-----------------|
B|--------5p3--5---|--------5p3--5---|--------5p3--5---|--------5p3--5---|
G|-4---4-----------|-4---4-----------|-4---4-----------|-4---4-----------|
D|-----------------|-----------------|-----------------|-----------------|
A|-----------------|-----------------|-----------------|-----------------|
E|-----------------|-----------------|-----------------|-----------------|

Guitars 1 & 2:
e|-----------------|-----------------|
B|-------------12--|-------------12--|
G|-9-12-9-11-9-----|-9-12-9-11-9-----|
D|-----------------|-----------------|
A|-----------------|-----------------|
E|-----------------|-----------------|

Guitar 1:
e|-----------------|-----------------|-----------------|-----------------|
B|-----------------|-----------------|-8---------------|-7---------------|
G|-7---------------|-7---------------|-9---------------|-9---------------|
D|-9---------------|-9---------------|-----------------|-----------------|
A|-----------------|-----------------|-----------------|-----------------|
E|-----------------|-----------------|-----------------|-----------------|

Guitar 2:
e|-----------------|-----------------|-----------------|-----------------|
B|--------5p3--5---|--------5p3--5---|--------5p3--5---|--------5p3--5---|
G|-4---4-----------|-4---4-----------|-4---4-----------|-4---4-----------|
D|-----------------|-----------------|-----------------|-----------------|
A|-----------------|-----------------|-----------------|-----------------|
E|-----------------|-----------------|-----------------|-----------------|

Guitars 1 & 2:
e|-----------------|-----------------|
B|-------------12--|--------12-------|
G|-9-12-9-11-9-----|-9-12-9----9-11--|
D|-----------------|-----------------|
A|-----------------|-----------------|
E|-----------------|-----------------|

Guitar 1:
e|-----------------|-----------------|-----------------|-----------------|
B|-----------------|-----------------|-----------------|-----------------|
G|-7---------------|-7---------------|-4---------------|-4---------------|
D|-9---------------|-9---------------|-2---------------|-2---------------|
A|-----------------|-----------------|-----------------|-----------------|
E|-----------------|-----------------|-----------------|-----------------|

Guitar 2:
e|-----------------|-----------------|-----------------|-----------------|
B|--------5p3--5---|--------5p3--5---|--------5p3--5---|--------5p3--5---|
G|-4---4-----------|-4---4-----------|-4---4-----------|-4---4-----------|
D|-----------------|-----------------|-----------------|-----------------|
A|-----------------|-----------------|-----------------|-----------------|
E|-----------------|-----------------|-----------------|-----------------|

Guitar 1:
e|-----------------|-----------------|-----------------|-----------------|
B|-5---------------|-5---------------|-5---------------|-5---------------|
G|-4---------------|-4---------------|-4---------------|-4---------------|
D|-----------------|-----------------|-----------------|-----------------|
A|-----------------|-----------------|-----------------|-----------------|
E|-----------------|-----------------|-----------------|-----------------|

Guitar 2:
e|-----------------|-----------------|-----------------|-----------------|
B|--------5p3--5---|--------5p3--5---|--------5p3--5---|--------5p3--5---|
G|-4---4-----------|-4---4-----------|-4---4-----------|-4---4-----------|
D|-----------------|-----------------|-----------------|-----------------|
A|-----------------|-----------------|-----------------|-----------------|
E|-----------------|-----------------|-----------------|-----------------|

Guitar 1:
e|-----------------|-----------------|-----------------|-----------------|
B|-----------------|-----------------|-8---------------|-10--------------|
G|-7---------------|-7---------------|-9---------------|-9---------------|
D|-9---------------|-9---------------|-----------------|-----------------|
A|-----------------|-----------------|-----------------|-----------------|
E|-----------------|-----------------|-----------------|-----------------|

Guitar 2:
e|-----------------|-----------------|-----------------|-----------------|
B|--------5p3--5---|--------5p3--5---|--------5p3--5---|--------5p3--5---|
G|-4---4-----------|-4---4-----------|-4---4-----------|-4---4-----------|
D|-----------------|-----------------|-----------------|-----------------|
A|-----------------|-----------------|-----------------|-----------------|
E|-----------------|-----------------|-----------------|-----------------|

Guitar 1:
e|-----------------|-----------------|-----------------|-----------------|
B|-5---------------|-5---------------|-5---------------|-5---------------|
G|-4---------------|-4---------------|-4---------------|-4---------------|
D|-----------------|-----------------|-----------------|-----------------|
A|-----------------|-----------------|-----------------|-----------------|
E|-----------------|-----------------|-----------------|-----------------|

Guitar 2:
e|-----------------|-----------------|-----------------|-----------------|
B|--------5p3--5---|--------5p3--5---|--------5p3--5---|--------5p3--5---|
G|-4---4-----------|-4---4-----------|-4---4-----------|-4---4-----------|
D|-----------------|-----------------|-----------------|-----------------|
A|-----------------|-----------------|-----------------|-----------------|
E|-----------------|-----------------|-----------------|-----------------|

Guitar 1:
e|-----------------|-----------------|-----------------|-----------------|
B|-----------------|-----------------|-----------------|-----------------|
G|-16--------------|-16--------------|-16--------------|-9----9----9-----|
D|-14--------------|-14--------------|-14--------------|-9----9----9-----|
A|-----------------|-----------------|-----------------|-7----7----7-----|
E|-----------------|-----------------|-----------------|-----------------|

Guitar 2:
e|-----------------|-----------------|-----------------|-----------------|
B|-----------------|-----------------|-----------------|-----------------|
G|-9---------------|-9---------------|-9---------------|-9----9----9-----|
D|-9---------------|-9---------------|-9---------------|-9----9----9-----|
A|-7---------------|-7---------------|-7---------------|-7----7----7-----|
E|-----------------|-----------------|-----------------|-----------------|

[Break]
Guitars 1 & 2:
e|-----------------|-----------------|-----------------|
B|-----------------|-----------------|-----------------|
G|------5-5-5-5-5--|------5-5-5-5-5--|------5-5-5-5-5--|
D|------x-x-x-x-x--|------x-x-x-x-x--|------x-x-x-x-x--|
A|------3-3-3-3-3--|------3-3-3-3-3--|------3-3-3-3-3--|
E|-----------------|-----------------|-----------------|

Guitar 1:
e|-----------------|-----------------|-----------------|-----------------|
B|-----------------|-----------------|-----------------|-----------------|
G|-9---------------|-9---------------|-10--------------|-12--------------|
D|-x---------------|-x---------------|-x---------------|-x---------------|
A|-7---------------|-7---------------|-9---------------|-10--------------|
E|-----------------|-----------------|-----------------|-----------------|

Guitar 2:
e|-----------------|-----------------|-----------------|-----------------|
B|-----------------|-----------------|-----------------|-----------------|
G|-16--------------|-16--------------|-17--------------|-17--------------|
D|-x---------------|-x---------------|-x---------------|-x---------------|
A|-14--------------|-14--------------|-15--------------|-15--------------|
E|-----------------|-----------------|-----------------|-----------------|

Guitar 1:
e|-----------------|---------10------|
B|-12--10--12--10--|-12--10------10--|
G|-----------------|-----------------|
D|-----------------|-----------------|
A|-----------------|-----------------|
E|-----------------|-----------------|

[Chorus 3]
Guitars 1 & 2:
e|-----------------|-----------------|-----------------|-----------------|
B|-----------------|-----------------|-----------------|-----------------|
G|-5---------------|-5---------------|-7---------------|-7-------11------|
D|-5---------------|-5---------------|-7---------------|-7-------x-------|
A|-3---------------|-3---------------|-5---------------|-5-------9-------|
E|-----------------|-----------------|-----------------|-----------------|
 
e|-----------------|-----------------|-----------------|-----------------|
B|-----------------|-----------------|-----------------|-----------------|
G|-9---------------|-9---------------|-4-------5-------|-7-------14------|
D|-9---------------|-9---------------|-x-------x-------|-x-------x-------|
A|-7---------------|-7---------------|-2-------3-------|-5-------12------|
E|-----------------|-----------------|-----------------|-----------------|

Guitar 1:
e|-----------------|-----------------|-----------------|-----------------|
B|-----------------|-----------------|-----------------|-----------------|
G|-5---------------|-5---------------|-7---------------|-7-------11------|
D|-x---------------|-x---------------|-x---------------|-x-------x-------|
A|-3---------------|-3---------------|-5---------------|-5-------9-------|
E|-----------------|-----------------|-----------------|-----------------|
 
e|-----------------|-----------------|-----------------|-----------------|
B|-----------------|-----------------|-----------------|-----------------|
G|-9---------------|-9---------------|-14--------------|-14--------------|
D|-x---------------|-x---------------|-x---------------|-x---------------|
A|-7---------------|-7---------------|-12--------------|-12--------------|
E|-----------------|-----------------|-----------------|-----------------|

Guitar 2:
e|-----------------|-----------------|-----------------|-----------------|
B|-----------------|-----------------|-----------------|-----------------|
G|-5---------------|-5---------------|-7---------------|-7-------11------|
D|-5---------------|-5---------------|-7---------------|-7-------x-------|
A|-3---------------|-3---------------|-5---------------|-5-------9-------|
E|-----------------|-----------------|-----------------|-----------------|
 
e|-----------------|-----------------|-----------------|-----------------|
B|-----------------|-----------------|-----------------|-----------------|
G|-9---------------|-9---------------|-14--------------|-14--------------|
D|-9---------------|-9---------------|-x---------------|-x---------------|
A|-7---------------|-7---------------|-12--------------|-12--------------|
E|-----------------|-----------------|-----------------|-----------------|

Guitar 1:
e|-----------------|-----------------|-----------------|-----------------|
B|-----------------|-----------------|-----------------|-----------------|
G|-12--------------|-12--------------|-12--------------|-12------14------|
D|-x---------------|-x---------------|-x---------------|-x-------x-------|
A|-10--------------|-10--------------|-10--------------|-10------12------|
E|-----------------|-----------------|-----------------|-----------------|

e|-----------------|-----------------|-----------------|-----------------|
B|-----------------|-----------------|-----------------|-----------------|
G|-9---------------|-11--------------|-16--------------|-16--------/-----|
D|-x---------------|-x---------------|-x---------------|-x---------/-----|
A|-7---------------|-9---------------|-14--------------|-14--------/-----|
E|-----------------|-----------------|-----------------|-----------------|

Guitar 2:
e|-----------------|-----------------|-----------------|-----------------|
B|-----------------|-----------------|-----------------|-----------------|
G|-12--------------|-12--------------|-14--------------|-14--------------|
D|-x---------------|-x---------------|-x---------------|-x---------------|
A|-10--------------|-10--------------|-12--------------|-12--------------|
E|-----------------|-----------------|-----------------|-----------------|

e|-----------------|-----------------|-----------------|-----------------|
B|-----------------|-----------------|-----------------|-----------------|
G|-16--------------|-16--------------|-16--------------|-16--------/-----|
D|-x---------------|-x---------------|-x---------------|-x---------/-----|
A|-14--------------|-14--------------|-14--------------|-14--------/-----|
E|-----------------|-----------------|-----------------|-----------------|

[Outro]
Guitar 1:
e|-----------------|-----------------|-----------------|-----------------|
B|-----------------|-----------------|-----------------|-----------------|
G|-12p9------------|-12p9------------|-12p9------------|-12p9------------|
D|------10p9----9--|------10p9----9--|------10p9----9--|------10p9----9--|
A|-----------10----|-----------10----|-----------10----|-----------10----|
E|-----------------|-----------------|-----------------|-----------------|
 
e|-----------------|-----------------|-----------------|-----------------|
B|-----------------|-----------------|-----------------|-----------------|
G|--------12-------|--------12-------|--------12-------|---------12------|
D|-9-10-9----------|-9-10-9----------|-9-10-9----------|--9-10-9---------|
A|-----------------|-----------------|-----------------|-----------------|
E|-----------------|-----------------|-----------------|-----------------|

e|-----------------|-----------------|-----------------|-----------------|
B|-----------------|-----------------|-----------------|-----------------|
G|-12p9------------|-12p9------------|-12p9------------|-12p9------------|
D|------10p9----9--|------10p9----9--|------10p9----9--|------10p9----9--|
A|-----------10----|-----------10----|-----------10----|-----------10----|
E|-----------------|-----------------|-----------------|-----------------|
 
e|-----------------|-----------------|-----------------|-----------------|
B|-----------------|-----------------|--------10-------|---------12------|
G|--------12-------|--------12-------|-----------------|-----------------|
D|-9-10-9----------|-9-10-9----------|-9-10-9----------|--9-10-9---------|
A|-----------------|-----------------|-----------------|-----------------|
E|-----------------|-----------------|-----------------|-----------------|            
Submit corrections


        The Kill lessons Hard to play? Try these video lessons and learn fast The Kill lessons
        
↑ Back to top | Tablatures and chords for acoustic guitar and electric guitar, ukulele, drums are parodies/interpretations of the original songs. You may use it for private study, scholarship, research or language learning purposes only