» » »

30 Seconds To Mars - Story Tabs

Artists:  A B C D E F G H I J K L M N O P Q R S T U V W X Y Z # 

Story Tabs

(ver. 2) Click to play this song!
30 Seconds To Mars
 Rating:
4/5 (4 votes)

 Story lessons Tabs too difficult? Try these video lessons and learn fast
 
                (1)
TUNING: EADGBe (3/4 step down)

[VERSE AND CHORUS]
     C#5 D5  A#5
e|---------------------|
B|---------------------|
G|---------------------|
D|---6---8---3po1------|
A|---4---6---1--1------|
E|---x---x---x--x------|

[BRIDGE]

E|---------------------|
B|---------------------|
G|---------------------|
D|---12---3---7---5----|
A|---12---3---7---5----|
E|---10---1---5---3----|


-=INTRO=-

   C#5        D5         A#5
e|--------------------------------------------|
B|--------------------------------------------|
G|--------------------------------------------|
D|-----6----/------8--\------3---3-3-3-1ho3---|
A|-4-4---4--/-6-6---6-\--1-1---1--------------|
E|--------------------------------------------|

-=VERSE 1=-

C#5       D#5         A#5
I've been thinking of everything
  C#5     D#5     A#5
I used to want to be
C#5       D#5         A#5

I've been thinking of everything
  C#5     D#5     A#5 (Start stumming the A#5)
Of me, of you and me

-=CHORUS 1=-

            C#5   D#5   A#5
This is the story of my life
            C#5   D#5   A#5
This is the story of my life

-=BRIEF STRUMMING INTERLUDE=-

E|---x---x----|
B|---x---x----|
G|---x-ho10---|
D|---11--11---|
A|---9---9----|
E|---x---x----|

-=VERSE 2=-

C#5       D#5         A#5
I'm in the middle of nothing, and
   C#5       D#5     A#5
It's where I want to be
C#5       D#5         A#5
I'm at the bottom of everything
C#5       D#5         A#5
And I finally start to believe

-=CHORUS 2=-

            C#5   D#5   A#5
This is the story of my life
            C#5   D#5   A#5
(No Verse)
            C#5   D#5   A#5
This is the story of my life

-=BRIDGE=-

E|---------------------|
B|---------------------|
G|---------------------|
D|---12---3---7---5----|
A|---12---3---7---5----|
E|---10---1---5---3----|

And I swear to god
I've found myself
In the end

And I swear to god
I've found myself
In the end

And I swear to god
I've found myself
In the end

And I swear to god
I've found myself
In the end

In the end

In the end

In the end

In the end

In the end

-=PICKING INTERLUDE=-

e|----------------------------------|
B|----------------------------------|
G|----------------------------------|
D|--(11)-(11)-(11)-(11)po(10)po8-8--|
A|----------------------------------|
E|----------------------------------|

e|----------------------------------------|
B|----------------------------------------|
G|----------------------------------------|
D|--8-(10)-(11)-(10)-(11)-(13)-8-(10)-8---|
A|----------------------------------------|
E|----------------------------------------|

-=OUTRO=-

            C#5   D#5   A#5
This is the story of my life
            C#5   D#5   A#5
            C#5   D#5   A#5
This is the story of my life
            C#5   D#5   A#5
            C#5   D#5   A#5
This is the story of my life
            C#5   D#5   A#5
            C#5      D#5   A#5
These are the lies I have created
            C#5   D#5   A#5
This is the story of my life
            C#5      D#5   A#5
These are the lies I have created
            
Submit corrections


        Story lessons Hard to play? Try these video lessons and learn fast Story lessons
        
↑ Back to top | Tablatures and chords for acoustic guitar and electric guitar, ukulele, drums are parodies/interpretations of the original songs. You may use it for private study, scholarship, research or language learning purposes only