» » »

30 Seconds To Mars - L490 Tabs

Artists:  A B C D E F G H I J K L M N O P Q R S T U V W X Y Z # 

L490 Tabs

(ver. 3) Click to play this song!
30 Seconds To Mars
 Rating:
4/5 (4 votes)

 L490 lessons Tabs too difficult? Try these video lessons and learn fast
 
                Guitar 1: after the sine noise at the beginning of the tune,

e|-----------------------------------------------------------------|
B|-0---0-1---------0---0-1---1---1-0---0-1---------0---0-1---1---1-|
G|-----------2---2---------------------------2---2-----------------|
D|---2-----2---2-----2-----2---2-----2-----2---2-----2-----2---2---|
A|-----------------------------------------------------------------|
E|-----------------------------------------------------------------|

Repeat this section 5 times.

Guitar 2: this part merges seamlessly into the end of the last loop.

e|-----------------------0_____------------------------0_____------|
B|-------0-0-0-0---------------1-------0-0-0-0---------------1-----|
G|-2-2-2/-------\0-0-0-0--------\2-2-2/-------\0-0-0-0-------------|
D|-----------------------------------------------------------------|
A|-----------------------------------------------------------------|
E|-----------------------------------------------------------------|

Repeat this section 5-6 times.

Guitar 3: this is the high section played at the end of the tune 
and during the last 2 section repeats of guitar 2

e|----9--8--9--------9--8--------9--8--9--------9--8---------------|
B|-8----------8-8-8-----------8----------8-8-8---------------------|
G|-----------------------------------------------------------------|
D|-----------------------------------------------------------------|
A|-----------------------------------------------------------------|
E|-----------------------------------------------------------------|

this section is played at fade out to the monk-chant..

there are other parts pf this tune but these are the ones that seem 
to be the main sections.
            
Submit corrections


        L490 lessons Hard to play? Try these video lessons and learn fast L490 lessons
        
↑ Back to top | Tablatures and chords for acoustic guitar and electric guitar, ukulele, drums are parodies/interpretations of the original songs. You may use it for private study, scholarship, research or language learning purposes only