» » »

30 Seconds To Mars - Hurricane Tabs

Artists:  A B C D E F G H I J K L M N O P Q R S T U V W X Y Z # 

Hurricane Tabs

(ver. 3) Click to play this song!
30 Seconds To Mars
 Rating:
4/5 (4 votes)

 Hurricane lessons Tabs too difficult? Try these video lessons and learn fast
 
                Hey there.  I've tabbed two songs of this album already (This Is War and 100
Suns) and now I'm tabbing this one.  In this tab I am going to do two 
separate parts (just so its not confusing.  

The top section is the guitar I tabbed, and the bottom is going to be the 
Piano/Violin/Vocal notes transposed to guitar.  I haven't completely done 
the Piano/Violin/Vocals so I am doing as much as possible.  the guitar 
however is 99% complete =]  Also this is not the terrible version with Kanye 
West singing in it.  This is the good version with just Jared Leto =]
(Not sure if there's a difference though)

The Piano/Violin/Vocal part is still tabbed with a capo as well.

Hope you like my tab and hope you take a look at the others =]

Guitar Tuning (EADGBE - Capo First Fret [Sorry to those who don't have a 
capo, but if your willing to risk a broken string for this song you could 
try and tune your whole guitar up lol])

Intro/Verse
E|--0---0-------------------------|
B|--0---0-------------------------|
G|--2---2-------------------------| X8
D|--2---3-------------------------|
A|--0---3-------------------------|
e|--X---1-------------------------|

Pre-Chorus
E|--0---0-------------------------|
B|--3---0-------------------------|
G|--0---1-------------------------|
D|--0---2-------------------------|
A|--2---2-------------------------|
e|--3---0-------------------------|

Chorus
E|--0---0---0----------------------|
B|--0---3---0----------------------|
G|--2---0---2----------------------|
D|--3---0---2----------------------| X4
A|--3---2---0----------------------|
e|--1---3---X----------------------|

After Chorus
E|------0-------------------------|
B|--P---0-------------------------|
G|--A---2-------------------------|
D|--U---3-------------------------|
A|--S---3-------------------------|
e|--E---1-------------------------|

Verse
E|--0---0-------------------------|
B|--0---0-------------------------|
G|--2---2-------------------------| X3
D|--2---3-------------------------|
A|--0---3-------------------------|
e|--X---1-------------------------|

(couldn't figure out the harmonics here, sorry)
E|------------------------------------------------------|
B|------------------------------------------------------|
G|------------------------------------------------------| X6
D|------------------------------------------------------|
A|-----3-----3-------3-----3-------3-----3-------3-----3|
e|-5-5---5-5-----5-5---5-5-----1-1---1-1-----1-1---1-1--|

Chorus
E|--0---0---0----------------------|
B|--0---3---0----------------------|
G|--2---0---2----------------------|
D|--3---0---2----------------------| X4
A|--3---2---0----------------------|
e|--1---3---X----------------------|

Pause After Chorus

Verse
E|--0---0-------------------------|
B|--0---0-------------------------|
G|--2---2-------------------------| X4
D|--2---3-------------------------|
A|--0---3-------------------------|
e|--X---1-------------------------|

Pre-Chorus
E|--0---0-------------------------|
B|--3---0-------------------------|
G|--0---1-------------------------|
D|--0---2-------------------------|
A|--2---2-------------------------|
e|--3---0-------------------------|

Chorus
E|--0---0---0----------------------|
B|--0---3---0----------------------|
G|--2---0---2----------------------|
D|--3---0---2----------------------| X12 (13 If you want to play
A|--3---2---0----------------------|      all the way to the end)
e|--1---3---X----------------------|

The End (Guitar)
///////////////////////////////////

Piano

Intro/Verse
E|------------------------------------------|
B|------------------------------------------|
G|-------------------------------------7----| X3
D|--7-9-10-7-9-10-7-9-10-7-9-10-7-9-10------|
A|------------------------------------------|
e|------------------------------------------|

Fourth Time
E|----------------------------------------------|
B|----------------------------------------------|
G|-------------------------------------10-9-7---|
D|--7-9-10-7-9-10-7-9-10-7-9-10-7-9-10--------5-|
A|----------------------------------------------|
e|----------------------------------------------|

Chorus
E|----------------------------------------------------|
B|----------------------------------------------------|
G|-----------------------7----------------------7-----| X4
D|--7-9-10-7-9-10-7-9-10---7-9-10-7-9-10-7-9-10-------|
A|--\SLOWER-PART/-----\SLOWER-PART/-------------------|
e|----------------------------------------------------|

Verse
E|------------------------------------------|
B|------------------------------------------|
G|-------------------------------------7----| X2
D|--7-9-10-7-9-10-7-9-10-7-9-10-7-9-10------|
A|------------------------------------------|
e|------------------------------------------|

Third Time
E|-----------------------------------------------|
B|-----------------------------------------------|
G|-------------------------------------10-9-7----|
D|--7-9-10-7-9-10-7-9-10-7-9-10-7-9-10--------5--|
A|-----------------------------------------------|
e|-----------------------------------------------|

Break For The Guitar And Falcetto Singing (vocal notes optional =])
E|-7----8----7----5-----|
B|-----Let-Ring---------|
G|----------------------|
D|----------------------|
A|----------------------|
e|----------------------|

E|-7-7-7-7-7-----7-7-7-7-7---5-----7-7-7-7-7---5----------------------------|
B|-------------------------------------------------5------------------------|
G|--------------------------------------------------------------------------|
D|--------------------------------------------------------------------------|
A|--------------------------------------------------------------------------|
e|--------------------------------------------------------------------------|

E|------------------------------|
B|---6s/8-8-8---6-5-6-5-6-5s\3--|
G|------------------------------|
D|------------------------------|
A|------------------------------|
e|------------------------------|

E|-7-7-7-7-7-----7-7-7-7-7---5-----7-7-7-7-7---5----------------------------|
B|-------------------------------------------------5------------------------|
G|--------------------------------------------------------------------------|
D|--------------------------------------------------------------------------|
A|--------------------------------------------------------------------------|
e|--------------------------------------------------------------------------|

E|----------------------------------------------------------|
B|---6s/8-8-8---10-10---12-12-------------------------------|
G|----------------------------------------------------------|
D|----------------------------------------------------------|
A|----------------------------------------------------------|
e|----------------------------------------------------------|

Back To Piano...

Chorus
E|---------------------------------------------------|
B|---------------------------------------------------|
G|-----------------------7----------------------7----| X4
D|--7-9-10-7-9-10-7-9-10---7-9-10-7-9-10-7-9-10------|
A|--\SLOWER-PART/----------\SLOWER PART/-------------|
e|---------------------------------------------------|

E|---------------------------|
B|---------------------------|
G|----------------------7----|
D|-7-9-10-7-9-10-7-9-10------|
A|-\---SLOW----/-------------|
e|---------------------------|

Verse (Violin)
E|-------8---7------------8---7---8------10---13---15---12-----|
B|---5----------------5----------------------------------------|
G|---\------------------Let-Ring-------------------------/-----|
D|-------------------------------------------------------------|
A|-------------------------------------------------------------|
e|-------------------------------------------------------------|

E|---10---8---7---3---5------|
B|---------------------------|
G|---------------------------|
D|---------------------------|
A|---------------------------|
e|---------------------------|

Outro Chorus
E|---------------------------------------------------|
B|---------------------------------------------------|
G|-----------------------7----------------------7----| X5
D|--7-9-10-7-9-10-7-9-10---7-9-10-7-9-10-7-9-10------|
A|--\SLOWER-PART/----------\SLOWER PART/-------------|
e|---------------------------------------------------|

Changes after 5 times to this
E|----------------------------------------------------|
B|----------------------------------------------------|
G|--11-10----11-10----11----11-10----11-10----11------|
D|--------11-------11----11-------11-------11----11---|
A|----------------------------------------------------|
e|----------------------------------------------------|
                                                       X8
E|----------------------------------------------------|
B|--------------------------11------------------------|
G|--11-10----11-10----11-------------11-10----11-13---|
D|--------11-------11----11----10-11-------11---------|
A|----------------------------------------------------|
e|----------------------------------------------------|

All Done =]

updates, things I may have done wrong so I can make this tab better (If I 
did anything wrong in the first place =P )   

Chris
            
Submit corrections


        Hurricane lessons Hard to play? Try these video lessons and learn fast Hurricane lessons
        
↑ Back to top | Tablatures and chords for acoustic guitar and electric guitar, ukulele, drums are parodies/interpretations of the original songs. You may use it for private study, scholarship, research or language learning purposes only