» » »

30 Seconds To Mars - Fantasy Tabs

Artists:  A B C D E F G H I J K L M N O P Q R S T U V W X Y Z # 

Fantasy Tabs

(ver. 2) Click to play this song!
30 Seconds To Mars
 Rating:
4/5 (4 votes)

 Fantasy lessons Tabs too difficult? Try these video lessons and learn fast
 
                intro:
e ---------------------------------------------------------------------------|
B ---------------------------------------------------------------------------|
G ---------------------------------------------------------------------------|
D ---------------------------------------------------------------------------|
A -13-13-13-13-13-13-13--11-11-11-11-13-14-13--8-8-9--9-9-11--11-11-9--9-9-8-|
E ---------------------------------------------------------------------------|

e --------------------------------------------------------------------------|
B --------------------------------------------------------------------------|
G --------------------------------------------------------------------------|
D --------------------------------------------------------------------------|
A -13-13-13-13-13-13-13--11-11-11-11-13-14-13--8-8-9--9-9-11----------------|
E --------------------------------------------------------------------------|

The chorus uses the following chords, just liseten for the strumming pattern
e ---------------------------------------------------------------------------|
B ---------------------------------------------------------------------------|
G ---------------------------------------------------------------------------|
D -9--11--13-----------------------------------------------------------------|
A -9--11--13-----------------------------------------------------------------|
E -7---9--11-----------------------------------------------------------------|


The bridge uses these chords, again listen for strumming pattern
e --------------------------------------------------------------------------|
B --------------------------------------------------------------------------|
G --------------------------------------------------------------------------|
D -13--14--16---------------------------------------------------------------|
A -13--14--16---------------------------------------------------------------|
E -11--12--14---------------------------------------------------------------|

i think these are right, it sounds good when i play it along so. Happy playing, and rock on \m/
            
Submit corrections


        Fantasy lessons Hard to play? Try these video lessons and learn fast Fantasy lessons
        
↑ Back to top | Tablatures and chords for acoustic guitar and electric guitar, ukulele, drums are parodies/interpretations of the original songs. You may use it for private study, scholarship, research or language learning purposes only