» » »

30 Seconds To Mars - Capricorn Tabs

Artists:  A B C D E F G H I J K L M N O P Q R S T U V W X Y Z # 

Capricorn Tabs

(ver. 2) Click to play this song!
30 Seconds To Mars
 Rating:
4/5 (4 votes)

 Capricorn lessons Tabs too difficult? Try these video lessons and learn fast
 
                Lyrics: J. Leto
Music: 30 Seconds to Mars
Label: Immortal
----------------------------------

I only have an acoustic so all the FX couldn't be tabbed.

Tuning: Dropped C

Intro
     D-|---------------------|-------------------------------|----------------------|-------------------------------------|
     A-|---------------------|-------------------------------|----------------------|-------------------------------------|
     F-|---------------------|----------------------------8--|----------------------|-------------------------------------|
     C-|-0----5-x-x-x-x-x-0--|--5-x-0----5-x-x-x-x-x-0----x--|--0----6-x-x-x-x-x-0--|--6-x-0----6-x-x-x-x-x-x-x-x-x-x-x-x-|
     G-|-0----5-x-x-x-x-x-0--|--5-x-0----5-x-x-x-x-x-0----6--|--0----6-x-x-x-x-x-0--|--6-x-0----6-x-x-x-x-x-x-x-x-x-x-x-x-|
     C-|-0----5-x-x-x-x-x-0--|--5-x-0----5-x-x-x-x-x-0-------|--0----6-x-x-x-x-x-0--|--6-x-0----6-x-x-x-x-x-x-x-x-x-x-x-x-|
                                                                                                          |
                                                                                                          Insert fills here

Chorus                      ________________________________________________________________________________________________
                           |1.                 |2.                    |3.
     D-|-------------------|-------------------|----------------------|------------------|--------------|------------------|
     A-|-------------------|-------------------|----------------------|------------------|--------------|------------------|
     F-|:-----------------:|-------------------|----------------------|------------------|--------------|------------------|
     C-|:-5------7-8/3----:|----------88888888-|--------x----88888888-|----------8----6--|-1------------|-8888888888888888-|
     G-|--5------7-8/3-----|----------88888888-|--------x----88888888-|----------8----6--|-1------------|-8888888888888888-|
     C-|--5------7-8/3-----|----------88888888-|--------x----88888888-|----------8----6--|-1------------|-8888888888888888-|
                                                        |
                                                        block (don't strike) the strings here

Verse
     D-|-----8-----10-------8-|-----10-----------------|-----8-----10-------|-----------10--------|
     A-|-8-8---(8)----8-(8)---|-(8)----8-(8)-11-8-10-8-|-8-8---(8)----8-(8)-|-11--10--8----8-11-8-|
     F-|----------------------|------------------------|--------------------|---------------------|
     C-|----------------------|------------------------|--------------------|---------------------|
     G-|----------------------|------------------------|--------------------|---------------------|
     C-|----------------------|------------------------|--------------------|---------------------|
                                                       |                                          |
                                                       -----Only play first time through verse-----

Fill 1                           Fill 2                        Outro
     D-|-------------------|          D-|--------------|            D-|---------------|
     A-|-------------------|          A-|--------------|            A-|---------------|
     F-|-------------------|          F-|--------------|            F-|---------------|
     C-|-------------------|          C-|--------------|            C-|---------------|
     G-|-8--6--5--3--6--5--|          G-|-8-5----6-5-3-|            G-|-3----8-5-7--6-|
     C-|-8--6--5--3--6--5--|          C-|-8-5----6-5-3-|            C-|-3----8-5-7--6-|
                                                     |                              |
                                                     block                          block

-----

Intro x 2

     So I...

Chorus
     Run and hide and tear myself up
     Start again with a brand new name
     And eyes that see into infinity

Verse
     I will disappear
     I told you once and I say it again
     I want my message read clear
     I'll show you the way,
     The way I'm going
                 (So I...)

Chorus
     Run and hide and tear myself up
     Start again with a brand new name
     And eyes that see into infinity

	(Synth Effect)

Verse
     I was almost there
     Just a moment away from becoming unclear
     Ever get the feeling you're gone?
     I'll show you the way,
     The way I'm going

	(Slide Effect)

     So I...

Chorus
     Run and hide and tear myself up
     Start again with a brand new name
     And eyes that see into infinity
     To infinity

Intro w/Fill 1

Intro w/Fill 2

     So I...

Chorus
     Run!
     Start again!
     With a brand new name!
     With a brand new name!

     So I...

Chorus
     Run and hide and tear myself up
     (Ruuuuuuuuuuuuuuuuun! Start ah)
     Start again with a brand new name
     (Gaaaaaaaaaaaaaaaaaaaain! With a)
     And eyes that see into infinity
     (Brand new naaaaaaaaaaaaaaame!)
                       To infinity
     (With a brand new naaaaaaaaaaaaaaame!)

Outro

     I will disappear
            
Submit corrections


        Capricorn lessons Hard to play? Try these video lessons and learn fast Capricorn lessons
        
↑ Back to top | Tablatures and chords for acoustic guitar and electric guitar, ukulele, drums are parodies/interpretations of the original songs. You may use it for private study, scholarship, research or language learning purposes only