» » »

30 Seconds To Mars - Battle Of One Tabs

Artists:  A B C D E F G H I J K L M N O P Q R S T U V W X Y Z # 

Battle Of One Tabs

(ver. 3) Click to play this song!
30 Seconds To Mars
 Rating:
4/5 (4 votes)

 Battle Of One lessons Tabs too difficult? Try these video lessons and learn fast
 
                
Gtr I (E A D G B E) - 'Battle of One' by 30 seconds to mars

  Gtr I
  S S S S  S  S E S S S S  S  S E   S S S S  S  S E S S S S  S  S E
|---------------------------------|------------------------------------|
|---------------------------------|------------------------------------|repeat many times
|---------------8---------------8-|---------------8---------------8----|
|-------8-10-10---------8-10-10---|-------8-10-10---------8-10-10------|
|---------------------------------|------------------------------------|
|-8-8-8-----------8-8-8-----------|-8-8-8-----------8-8-8--------------|


  S  S  S  E  E  E  E  E  E  S   S  S  S  E  E  E  E  S  S  S  S S
|------------------------------|--------------------------------------|
|------------------------------|--------------------------------------|
|------------------------------|---------------------------------8----|Repeat twice
|-8-10-10-10-10-10-10-10-10-10-|-8-10-10-10-10-10-10-10-12-12-12------|
|------------------------------|--------------------------------------|
|------------------------------|--------------------------------------|
            
Submit corrections


        Battle Of One lessons Hard to play? Try these video lessons and learn fast Battle Of One lessons
        
↑ Back to top | Tablatures and chords for acoustic guitar and electric guitar, ukulele, drums are parodies/interpretations of the original songs. You may use it for private study, scholarship, research or language learning purposes only