Home » # »

/0-9/3-tabs-21475.html

»

3 - Dogs Of War Tabs

Artists:  A B C D E F G H I J K L M N O P Q R S T U V W X Y Z # 

Dogs Of War Tabs

(ver. 1) Click to play this song!
3
-----------------------------------------------------------------------------
                             DOGS OF WAR - Three (3)
-----------------------------------------------------------------------------

a guide for the notes being played. I haven't added any indication of the 
strumming pattern or when the notes are palm muted because I haven't quite 
figured it out yet. I will update the tab once I am confident that I have 
that part down 100%. Please post any comments on alternative ways to play 
the song or corrections to what I have tabbed out so that I can update the 
tab accordingly.

Tuning: Open E minor (EBEGBe)

Main Riff
e|4---5---7---8---7---5---4------------------------------------|
B|0---0---0---0---0---0---0------------------------------------|
G|1---2---4---5---4---2---1------------------------------------|
E|-------------------------------------------------------------|
B|-------------------------------------------------------------|
E|-------------------------------------------------------------|

e|4---5---7---8---7---10---8---12---10---8---7---5-/-7-\-4-----|
B|0---0---0---0---0----0---0----0----0---0---0---0-------0-----|
G|1---2---4---5---4----7---5----9----7---5---4---2-/-4-\-1-----|
E|-------------------------------------------------------------|
B|-------------------------------------------------------------|
E|-------------------------------------------------------------|
Note that this slide is an alternate way of playing the song. If you want to 
play without the slide go directly from 5-2 to 4-1

Verse
e|3---5---4---3---5---4----------------------------------------|
B|0---0---0---0---0---0----------------------------------------|
G|0---2---1---0---2---1----------------------------------------|
E|-------------------------------------------------------------|
B|-------------------------------------------------------------|
E|-------------------------------------------------------------|

Bridge
e|(0)-(0)-(0)-(0)-------------(6)------------------------------|
B|-3---3---3---3---6---6---6---6-------------------------------|
G|-0---0---0---0---0---0---0---0-------------------------------|
E|-3---0---2---3---6---5---6---6-------------------------------|
B|-0---0---0---0---0---0---0---0-------------------------------|
E|-3---3---3---3---6---6---6---6-------------------------------|
(x2)

Chorus
e|-7---0---2---3-----------------------------------------------|
B|-7---0---2---3-----------------------------------------------|
G|-7---0---2---3-----------------------------------------------|
E|-7---0---2---3-----------------------------------------------|
B|-7---0---2---3-----------------------------------------------|
E|-7---0---2---3-----------------------------------------------|
(x3)

Breakdown
e|11---9---11---12---11---12---14---16---14---11---6---9-------|
B|-0---0----0----0----0----0----0----0----0----0---0---0-------|
G|-8---6----8----9----8----9---11---13---11----8---3---6-------|
E|-------------------------------------------------------------|
B|-------------------------------------------------------------|
E|-------------------------------------------------------------|

e|--4---3---5---4----------------------------------------------|
B|--0---0---0---0----------------------------------------------|
G|--1---0---2---1----------------------------------------------|
E|-------------------------------------------------------------|
B|-------------------------------------------------------------|
E|-------------------------------------------------------------|

Section Order:
Main Riff
Verse
Bridge
Chorus
Verse
Main Riff
Verse
Bridge
Chorus
Verse
Breakdown
Bridge
Chorus
Verse
Main Riff

************************************

| /   slide up
| \   slide down
| h   hammer-on
| p   pull-off
| ~   vibrato
| +   harmonic
| x   Mute note
| b   Bend
| pb  Pre-bend
| br  Bend release
| pbr Pre-bend release
| brb Bend release bend

************************************
            
Submit corrections

↑ Back to top | Tablatures and chords for acoustic guitar and electric guitar, ukulele, drums are parodies/interpretations of the original songs. You may use it for private study, scholarship, research or language learning purposes only