Home » # » 2pac »

2pac - Thugz Mansion Tabs

Artists:  A B C D E F G H I J K L M N O P Q R S T U V W X Y Z # 

Thugz Mansion Tabs

(ver. 2) Click to play this song!
2pac
2pac feat. Nas - Thugz Mansion (Acoustic)


       G#       A          Cm
e|-----4-----------------3----3h6p3-----|
B|-----4-----------------4----------4---|
G|-----5----6h5----------5--------------|
D|-----6--------8p6p5----5----------5---|
A|-----6-----------------3--------------|
E|-----4-----------------3--------------|

up&down x2            up&down x2


E|--1---3---4--4--------1---3---6--6-----|
B|--2---4---6----6------2---4---8---8----|
G|--1---3---5------5----1---3---6----6---|
D|--3---5---6-----------3---5---8--------|
A|--1---3---4-----------1---3---6--------|
E|--1---3---4-----------1---3---x--------|  repeat


This is probably the closest you can get without having a lead guitar.
Just add some variations to fill-in notes, then it should sound really close to the song.

After 1st G#, slid to A for the fill-in notes before the next chord.
It's much easier if you happen to have short fingers like mine.
            
Submit corrections

↑ Back to top | Tablatures and chords for acoustic guitar and electric guitar, ukulele, drums are parodies/interpretations of the original songs. You may use it for private study, scholarship, research or language learning purposes only