» » »

1 Dads - So Long Tabs

Artists:  A B C D E F G H I J K L M N O P Q R S T U V W X Y Z # 

So Long Tabs

(ver. 1) Click to play this song!
1 Dads
 Rating:
1.8/5 (28 votes)

 So Long  lessons Tabs too difficult? Try these video lessons and learn fast
 
                INTRO/INTERLUDE

e|--2-2-2-2-2-2-2-2-0-0-0-0-0-0-0-0-0-0-0-0-0-0-0-0--3---|
B|--2-2-2-2-2-2-2-2-0-0-0-0-0-0-0-0-0-0-0-0-0-0-0-0--3---|
G|--2-2-2-2-2-2-2-2-0-0-0-0-0-0-0-0-0-0-0-0-0-0-0-0--0---|
D|--4-4-4-4-4-4-4-4-2-2-2-2-2-2-2-2-2-2-2-0-0-0-0-0--0---|
A|----------------------------------4-4-4-2-2-2-2-2--2---|
E|--------------------------------------------0-0-0--3---|


VERSE
    Fmaj7/C      Am     G
e|----0-----------0-----0----|\
B|----1-----------1-----3----| \
G|----2-----------2-----0----|   X4
D|----3-----------2-----0----| /
A|----3-----------0-----2----|/
E|----------------------3----|


INTERLUDE


VERSE X4


BRIDGE
   Fmaj7/C     G 
e|---0---------0----|\
B|---1---------3----| \
G|---2---------0----|  X3
D|---3---------0----| /
A|---3---------2----|/
E|-------------3----|


INTERLUDE


LEAD + VERSE (2 Guitars)

e|---8------------8-----------------8------8-10-8-10b---10pb--8------------|\
B|------10--8-10-----10---10-8-10------10------------------------10-8-10---| \
G|-------------------------------------------------------------------------|  X4
D|-------------------------------------------------------------------------| /
A|-------------------------------------------------------------------------|/
E|-------------------------------------------------------------------------|



OUTRO
    Fmaj7/C      Am     G
e|----0-----------0-----0----|\
B|----1-----------1-----3----| \
G|----2-----------2-----0----|   X4
D|----3-----------2-----0----| /
A|----3-----------0-----2----|/
E|----------------------3----|


    Fmaj7/C
e|----0-----|
B|----1-----|
G|----2-----|
D|----3-----|
A|----3-----|
E|----------|            
Submit corrections


        So Long  lessons Hard to play? Try these video lessons and learn fast So Long  lessons
        
↑ Back to top | Tablatures and chords for acoustic guitar and electric guitar, ukulele, drums are parodies/interpretations of the original songs. You may use it for private study, scholarship, research or language learning purposes only