» » »

12 Stones - We Are One Tabs

Artists:  A B C D E F G H I J K L M N O P Q R S T U V W X Y Z # 

We Are One Tabs

(ver. 2) Click to play this song!
12 Stones
 Rating:
4/5 (4 votes)

 We Are One lessons Tabs too difficult? Try these video lessons and learn fast
 
                Well if you watch WWE Raw then you will know that this song is the entrance for The Nexus
tab is in Drop C tuning.I hope you enjoy the tab.

Update: I made the chorus better.MUCH BETTER 

Intro x2
D|--------------------------------------------------------------|
A|--------------------------------------------------------------|
F|--14-0-14-0-12-0-12-0-17-0-17-0-15-0-15-0---------------------|
C|--------------------------------------------------------------|
G|--------------------------------------------------------------|
C|--------------------------------------------------------------|

D|--------------------------------------------------------------|
A|--------------------------------------------------------------|
F|--15-0-15-0-14-0-14-0-12-0-12-0-12-0-12-0---------------------|
C|--------------------------------------------------------------|
G|--------------------------------------------------------------|
C|--------------------------------------------------------------|

Verse x4
D|-------------------------------------------------------------------------|
A|-------------------------------------------------------------------------|
F|-------------------------------------------------------------------------|
C|--5-5-5-5-5-5-5-5-8-8-8-8-8-8-8-8-3-3-3-3-3-3-3-3-10-10-10-10-10-10-10-10|
G|--5-5-5-5-5-5-5-5-8-8-8-8-8-8-8-8-3-3-3-3-3-3-3-3-10-10-10-10-10-10-10-10|
C|--5-5-5-5-5-5-5-5-8-8-8-8-8-8-8-8-3-3-3-3-3-3-3-3-10-10-10-10-10-10-10-10|

Chorus x2
D|----------------------------------------------------------------------|
A|----------------------------------------------------------------------|
F|-----------5-5-5-5-------------------------5-5-5-5--------------------|
C|---5-5-5-5-5-5-5-5-3-3-3-3-3-0-3-8-5-5-5-5-5-5-5-5-1-1-1-1-1-1-3-3----|
G|---5-5-5-5-3-3-3-3-3-3-3-3-3-0-3-8-5-5-5-5-3-3-3-3-1-1-1-1-1-1-3-3----|
C|---5-5-5-5---------3-3-3-3-3-0-3-8-5-5-5-5---------1-1-1-1-1-1-3-3----|

Verse x4

Chorus x2

Verse x2

Intro x2

D|-----------------------------------------------------|
A|-----------------------------------------------------|
F|-----------------------------------------------------|
C|---5-5-5-5-5-5-5-5-8-8-8-8-8-8-8-8-3-3-3-3-3-3-3-3---|
G|---5-5-5-5-5-5-5-5-8-8-8-8-8-8-8-8-3-3-3-3-3-3-3-3---|
C|---5-5-5-5-5-5-5-5-8-8-8-8-8-8-8-8-3-3-3-3-3-3-3-3---|

D|-----------------------------------------------------|
A|-----------------------------------------------------|
F|-----------------------------------------------------|
C|---10-10-10-10-10-10-10-10-10-10-10-10-10-10-10-10---|
G|---10-10-10-10-10-10-10-10-10-10-10-10-10-10-10-10---|
C|---10-10-10-10-10-10-10-10-10-10-10-10-10-10-10-10---|

Chorus x1



D|-------------------------------------------------------|
A|-------------------------------------------------------|
F|-----------5-5-5-5-----------------------------5-5-5-5-|
C|---5-5-5-5-5-5-5-5-3-3-3-3-3-0-3-8-----5-5-5-5-5-5-5-5-|
G|---5-5-5-5-3-3-3-3-3-3-3-3-3-0-3-8-----5-5-5-5-3-3-3-3-|
C|---5-5-5-5---------3-3-3-3-3-0-3-8-----5-5-5-5---------|

D|-------------------------------------------------------|
A|-------------------------------------------------------|
F|-------------------------------------------------------|
C|---1-1-1-1-1-1-1-1-3-3-3-3-3-3-3-3---------------------|
G|---1-1-1-1-1-1-1-1-3-3-3-3-3-3-3-3---------------------|
C|---1-1-1-1-1-1-1-1-3-3-3-3-3-3-3-3---------------------|

Verse x2

D|-----------------|
A|-----------------|
F|-----------------|
C|---5-------------|
G|---5-------------|
C|---5-------------|


Outro x4
D|--------------------------------------------------------------|
A|--------------------------------------------------------------|
F|--14-0-14-0-12-0-12-0-17-0-17-0-15-0-15-0---------------------|
C|--------------------------------------------------------------|
G|--------------------------------------------------------------|
C|--------------------------------------------------------------|

D|--------------------------------------------------------------|
A|--------------------------------------------------------------|
F|--15-0-15-0-14-0-14-0-12-0-12-0-12-0-12-0---------------------|
C|--------------------------------------------------------------|
G|--------------------------------------------------------------|
C|--------------------------------------------------------------|
            
Submit corrections


        We Are One lessons Hard to play? Try these video lessons and learn fast We Are One lessons
        
↑ Back to top | Tablatures and chords for acoustic guitar and electric guitar, ukulele, drums are parodies/interpretations of the original songs. You may use it for private study, scholarship, research or language learning purposes only