» » »

11 23 - Smile Tabs

Artists:  A B C D E F G H I J K L M N O P Q R S T U V W X Y Z # 

Smile Tabs

(ver. 1) Click to play this song!
11 23
 Rating:
4/5 (4 votes)
                4-------------------------------------------
5---7------7------9-------------------------
6---5-X12--4-X12--7-X12--0-0-4-4-5-5-7------

4-----------------------------------------
5---7------7------9-----------------------
6---5-X12--4-X12--7-X12--9-9-7-7-5-5-7-7--

4---7------7----------------------------------
5---5-X12--4-X12--7------7--------------------
6-----------------9-X12--5-X12----------------
            
Submit corrections

↑ Back to top | Tablatures and chords for acoustic guitar and electric guitar, ukulele, drums are parodies/interpretations of the original songs. You may use it for private study, scholarship, research or language learning purposes only