» » »

10 Years - Waking Up Tabs

Artists:  A B C D E F G H I J K L M N O P Q R S T U V W X Y Z # 

Waking Up Tabs

(ver. 3) Click to play this song!
10 Years
 Rating:
4/5 (4 votes)
                Intro/verse

 e|----------------------------|
 B|----------------------------|
 G|----------------------------|
 D|--8-9----9-8-----11-------6-|
 A|--------------13-------9----|
 E|----------------------------|


        Chorus

 e|---------|  |---------------|
 B|---------|  |---------------|
 G|---------|  |---------------|
 D|--8-8-9-6|x2|--4-4-4-6-6-6--|x1
 A|--6-6-6-6|  |--4-4-4-6-6-6--|
 E|--6-6-6-3|  |--2-2-2-4-4-4--|


        Outro

 e|----------------------------------------|
 B|----------------------------------------|
 G|----------------------------------------|
 D|--8-8-9-9----9-9-8-8-------11-11----6-6-|
 A|---------------------13-13------9-9-----|
 E|----------------------------------------|

listen to the song to figure out how much each is played
            
Submit corrections

↑ Back to top | Tablatures and chords for acoustic guitar and electric guitar, ukulele, drums are parodies/interpretations of the original songs. You may use it for private study, scholarship, research or language learning purposes only