» » »

10cc - Dreadlock Holiday Tabs

Artists:  A B C D E F G H I J K L M N O P Q R S T U V W X Y Z # 

Dreadlock Holiday Tabs

(ver. 4) Click to play this song!
10cc
 Rating:
4.3/5 (12 votes)

 Dreadlock Holiday lessons Tabs too difficult? Try these video lessons and learn fast
 
                [Intro]

    Gm     Dm  Cm
e|--10-----10---8----|
B|--11-----10---8----|
G|--12-----10---8----|
D|--12-----12---10---| 2x
A|--10-----12---10---|
E|---------10---8----|

      Gm                         Dm  Cm                    Dm
e|--10----10-10-x-x-10--x-x-10-x-10--8--8-8--x-x-8-x-x-8-x-10-|
B|--10h11-11-11-x-x-11--x-x-11-x-10--8--8-8--x-x-8-x-x-8-x-10-|
G|--10h12-12-12-x-x-12--x-x-12-x-10--8--8-8--x-x-8-x-x-8-x-10-|
D|------------------------------------------------------------| 2x
A|------------------------------------------------------------|
E|------------------------------------------------------------|

[Verse]
      Gm                         Dm  Cm                    Dm
e|--10----10-10-x-x-10--x-x-10-x-10--8--8-8--x-x-8-x-x-8-x-10-|
B|--10h11-11-11-x-x-11--x-x-11-x-10--8--8-8--x-x-8-x-x-8-x-10-|
G|--10h12-12-12-x-x-12--x-x-12-x-10--8--8-8--x-x-8-x-x-8-x-10-|
D|------------------------------------------------------------| 8x
A|------------------------------------------------------------|
E|------------------------------------------------------------|


[Chorus]
      Gm                      F      Eb                Dm   Cm                 Dm    Eb                F 
e|--10-10---10-10---10-10---8--8----6-6---6-6---6-6---5-5---3-3---3-3---3-3---5-5---6-6---6-6---6-6---8--8--|
B|--11-11---11-11---11-11---10-10---8-8---8-8---8-8---6-6---4-4---4-4---4-4---6-6---8-8---8-8---8-8---10-10-|
G|--12-12---12-12---12-12---10-10---8-8---8-8---8-8---7-7---5-5---5-5---5-5---7-7---8-8---8-8---8-8---10-10-|
D|----------------------------------------------------------------------------------------------------------|
A|----------------------------------------------------------------------------------------------------------|
E|----------------------------------------------------------------------------------------------------------|



[Break]
    Bb                Eb    Bb                Eb    Bb                Eb    Bb                 F
e|--6-6---6-6---6-6---6-6---6-6---6-6---6-6---6-6---6-6---6-6---6-6---6-6---6-6---6-6---8--8---8--8----|
B|--6-6---6-6---6-6---8-8---6-6---6-6---6-6---8-8---6-6---6-6---6-6---8-8---6-6---6-6---10-10--10-10---|
G|--7-7---7-7---7-7---8-8---7-7---7-7---7-7---8-8---7-7---7-7---7-7---8-8---6-6---6-6---10-10--10-10---|
D|-----------------------------------------------------------------------------------------------------|
A|-----------------------------------------------------------------------------------------------------|
E|-----------------------------------------------------------------------------------------------------|

Structure:
Intro
Verse
Chorus
Break

Verse
Chorus
Break

Verse (+1 semitone)
Chorus (+1 semitone)
Break (+1 semitone)
Chorus (+1 semitone)
Repeat chorus until fade-out            
Submit corrections


        Dreadlock Holiday lessons Hard to play? Try these video lessons and learn fast Dreadlock Holiday lessons
        
↑ Back to top | Tablatures and chords for acoustic guitar and electric guitar, ukulele, drums are parodies/interpretations of the original songs. You may use it for private study, scholarship, research or language learning purposes only